Oops, an error
Loading. Please wait.
We have an official White Horse tab made by UG professional guitarists. Check out the tab »
×
125,661 views 81 this week
6 commentsread comments
1 2 3 4 5
x 15
add to favorites
×
Save as Personal and add changes to this tab that will be seen only by you. Learn more ›
×
You can save this tab as Personal to edit and correct it or add notes. All changes will be seen only by you. Learn more »
launch autoscroll
font size
0
reset
how to read this tab
guitar tuner
edit
Autoscroll
slow
fast
+/-
esc
set tempo
stop
Taylor Swift – White Horse
Standard tuning:

 Say you're sorry… That face of an angel

E|---------3--------------3----------------------3---------------|
B|--1--1------1---1--1-------1---1--1-----1--1------1------------|
G|---------------------------------------------------------------|
D|----------------3--3--------------------3--3-------------------|
A|--3--3-------------------------0--0----------------------------|
E|---------------------------------------------------------------|

     That I'm not a princess; this ain't a fairy tale…

    C  Am   F   G
E|--0---0---1---3------------------------------------------------|
B|--1---1---1---3------------------------------------------------|
G|--0---2---2---0------------------------------------------------|
D|--2---2---3---0------------------------------------------------|
A|--3-------3---2------------------------------------------------|
E|----------1---3------------------------------------------------|

                     Baby I was naive, Got lost in your eyes…
    

                    C   Am  F   G
E|--------3---------0---0---1---3---------------------------------|
B|--1--1----1-------1---1---1---3---------------------------------|
G|------------------0---2---2---0---------------------------------|
D|-----------(X2)---2---2---3---0---------------------------------|
A|------------------3-------3---2---------------------------------|
E|--3--3--------------------1---3---------------------------------|

    
     I'm not a princess; this ain't a fairy tale…

    C   Am  F   G
E|--0---0---1---3------------------------------------------------|
B|--1---1---1---3------------------------------------------------|
G|--0---2---2---0------------------------------------------------|
D|--2---2---3---0------------------------------------------------|
A|--3-------3---2------------------------------------------------|
E|----------1---3------------------------------------------------|

       And there you are on your knees…


       Am  F   G
E|-----0---1---3------------------------------------------------|
B|-----1---1---3------------------------------------------------|
G|-----2---2---0------------------------------------------------|
D|-----2---3---0------------------------------------------------|
A|---------3---2------------------------------------------------|
E|---------1---3------------------------------------------------|
        
       Cause I'm not your princess, this ain't a fairytale…

            
            
Suggest correction
Creating personal tab
Creating personal tab
You can edit any tab online and save it as your Personal.

You can edit, replace or remove any tab part or add personal notes – all changes will be seen only by you.

Personal tabs can be accessed anytime from any device, even offline.
Learn more »
comments
print report bad tab
6 comments total. Showing first comments.
+2 reply
Hello_Stefan 10 Mar 10, 2009 01:41 PM

pretty good tab, the intro is a little bit off. In the song, she plays the B and A string again after the third chord.

+1 reply
3kgtjunkie 20 Apr 16, 2009 10:07 AM

yeah pretty damn close.

0 reply
heeyy 10 May 17, 2009 10:00 AM

do anyone of you know how to read the tab? i don't understand it ... please, help me!

guest
Wanna post a correction for this tab? Suggest correction