Oops, an error
Loading. Please wait.

Oh La La La tab

682 views 27 this week
no commentswrite comment
1 2 3 4 5
3 more votes to show rating
add to favorites
×
Save as Personal and add changes to this tab that will be seen only by you. Learn more ›
×
You can save this tab as Personal to edit and correct it or add notes. All changes will be seen only by you. Learn more »
launch autoscroll
font size
0
reset
how to read this tab
guitar tuner
edit
Autoscroll
slow
fast
+/-
esc
set tempo
stop
[Intro]

      x14                          x4   E5-F#
   |=======| |===============| |=====|
e|-|-------|-|---------------|-|-----|---------------------------------------------|
B|-|-------|-|---------------|-|-trill---------------------------------------------|
G|-|-------|-|---------------|-|-11t12---------------------------------------------|
D|-12-12-0-0-12-0-11-0-12-0-14-|---------------------------------------------------|
A|-----------------------------9---------------------------------------------------|
E|---------------------------------------------------------------------------------|


[Verse]  F# 

e|-9---9-x--9-x-12-x-9-x-x-x-x--9--9--9--9-----------------------------------------|
B|-11-11-x--9-x--9-x-9-x-x-x-x-11-11-11-11-----------------------------------------|
G|-11-11-x--9-x--9-x-9-x-x-x-x-11-11-11-11-----------------------------------------|
D|-11-11-x-11-x-11-x-9-x-x-x-x-11-11-11-11-----------------------------------------|
A|---------------------------------------------------------------------------------|
E|---------------------------------------------------------------------------------|

And it rolls
And it goes
I see lovers
I see losers
And it's heavy
And it's funny
Sparks fly, tears roll


[Refrain]

(D D F# F#)2x
O la, la, la
O la, la, la
O la, la, la
C'est magnifique
O la, la, la
O la, la, la
O la, la, la
C'est magnifique


[Verse]  F# 

e|-9---9-x--9-x-12-x-9-x-x-x-x--9--9--9--9-----------------------------------------|
B|-11-11-x--9-x--9-x-9-x-x-x-x-11-11-11-11-----------------------------------------|
G|-11-11-x--9-x--9-x-9-x-x-x-x-11-11-11-11-----------------------------------------|
D|-11-11-x-11-x-11-x-9-x-x-x-x-11-11-11-11-----------------------------------------|
A|---------------------------------------------------------------------------------|
E|---------------------------------------------------------------------------------|

Too many failures
Too many winners
Have a good time
Too much nothing
Tooty frooty wooty
Tooty frooty wooty
She looks so snappy, she's so pretty
She looks so snappy, she's so pretty


[Refrain]

(D D F# F#)2x

O la, la, la
O la, la, la
O la, la, la
C'est magnifique
O la, la, la
O la, la, la
O la, la, la
C'est magnifique


[Verse]  F# 

e|-9---9-x--9-x-12-x-9-x-x-x-x--9--9--9--9-----------------------------------------|
B|-11-11-x--9-x--9-x-9-x-x-x-x-11-11-11-11-----------------------------------------|
G|-11-11-x--9-x--9-x-9-x-x-x-x-11-11-11-11-----------------------------------------|
D|-11-11-x-11-x-11-x-9-x-x-x-x-11-11-11-11-----------------------------------------|
A|---------------------------------------------------------------------------------|
E|---------------------------------------------------------------------------------|

Too much pressure
Too much talk
Too many singers
Too much songs


[Refrain]

(D D F# F#)2x

O la, la, la
O la, la, la
O la, la, la
C'est magnifique
O la, la, la
O la, la, la
O la, la, la
C'est magnifique

O la, la, la
O la, la, la

            
            
Suggest correction
Creating personal tab
Creating personal tab
You can edit any tab online and save it as your Personal.

You can edit, replace or remove any tab part or add personal notes – all changes will be seen only by you.

Personal tabs can be accessed anytime from any device, even offline.
Learn more »
Give kudos to tab author, rate the tab!
1 2 3 4 5
comments
print report bad tab
guest
You may want to rate the tab now too:
select rating
Wanna post a correction for this tab? Suggest correction