Oops, an error
Loading. Please wait.

Heaven Coming Down tab

version 1
version 1

Whole song

Interactive

40,050 views 39 this week
3 commentsread comments
1 2 3 4 5
x 12
add to favorites
×
Save as Personal and add changes to this tab that will be seen only by you. Learn more ›
×
You can save this tab as Personal to edit and correct it or add notes. All changes will be seen only by you. Learn more »
launch autoscroll
font size
0
reset
how to read this tab
guitar tuner
edit
Autoscroll
slow
fast
+/-
esc
set tempo
stop
Author
Unregistered
The Tea Party - Heaven Coming Down
tabbed by Chris Marks
vvhat_is@hotmail.com

[Intro]
(pickup)
e|---|----------------|----------------|----------------|----------------|
B|---|----------------|--3-2---0-------|--0-2-3---------|--0-2-3---------|
G|---|----6-7---0---2-|------2---------|--------2-0---2-|0-------2-0---2-|
D|---|0-9-----7---4---|0---------4-5-4-|------------4---|------------4---|
A|-4-|----------------|----------------|5---------------|----------------|
E|---|----------------|----------------|----------------|----------------|

e|----------------|----------------|----------------|----------------|
B|----------------|--3-2---0-------|--0-2-3---------|--0-2-3---------|
G|----6-7---0---2-|------2---------|--------2-0---2-|0-------2-0---2-|
D|--9-----7---4---|0---------4-5-4-|------------4---|------------4---|
A|----------------|----------------|5---------------|----------------|
E|----------------|----------------|----------------|----------------|

(no guitar for verse 1)
With nothing to lose
you'd waste away,
obscured in exile.
They've witnessed the times
you've gone astray,
whose fault?  Now you're thinking...
There's nothing to prove...
A snapshot from the crowd to the shore, baby...

[Chorus]
(pickup)
e|---|----------------|----------------|----------------|----------------|
B|---|----------------|--3-2---0-------|--0-2-3---------|--0-2-3---------|
G|---|----6-7---0---2-|------2---------|--------2-0---2-|0-------2-0---2-|
D|---|0-9-----7---4---|0---------4-5-4-|------------4---|------------4---|
A|-4-|----------------|----------------|5---------------|----------------|
E|---|----------------|----------------|----------------|----------------|
              And it feels now, just like heaven's coming down

(no guitar for verse 2)
So strange are the ways
they all have changed,
still life it stays the same.
A break from the past
could make it last, oh,
maybe just a little longer.
There's nothing to prove...
A snapshot from the crowd to the shore, baby...

[Chorus 2]
(pickup)
e|---|----------------|----------------|----------------|----------------|
B|---|----------------|--3-2---0-------|--0-2-3---------|--0-2-3---------|
G|---|----6-7---0---2-|------2---------|--------2-0---2-|0-------2-0---2-|
D|---|0-9-----7---4---|0---------4-5-4-|------------4---|------------4---|
A|-4-|----------------|----------------|5---------------|----------------|
E|---|----------------|----------------|----------------|----------------|
(And it feels now, just like heaven's coming down) 
   
(Your)
e|----------------|----------------|----------------|----------------|
B|----------------|--3-2---0-------|--0-2-3---------|--0-2-3---------|
G|----6-7---0---2-|------2---------|--------2-0---2-|0-------2-0---2-|
D|--9-----7---4---|0---------4-5-4-|------------4---|------------4---|
A|----------------|----------------|5---------------|--------------0-|
E|----------------|----------------|----------------|----------------|
(soul    shakes free    as its   conscience hits the ground)

[Bridge]
e|------0---2-----|------2---------|
B|0-2-3-----------|--3-0-----3-----|
G|----------------|--------------2-| x3
D|----------------|----------------|
A|----------------|----------------|
E|----------------|----------------|
(You  surrender)
(Love under will)
(Rest assured baby,   you're)

e|------0-2-5-----|----------0-2-5-|
B|0-2-3---------0-|----0-2-3-------|
G|------------2---|--2-------------|
D|----------------|----------------|
A|----------------|----------------|
E|----------------|----------------|
(adored...)

[Chorus 3]

e|----------------|----------------|----------------|----------------|
B|----------------|--3-2---0-------|--0-2-3---------|--0-2-3---------|
G|----6-7---0---2-|------2---------|--------2-0---2-|0-------2-0---2-|x4
D|--9-----7---4---|0---------4-5-4-|------------4---|------------4---|
A|----------------|----------------|5---------------|----------------|
E|----------------|----------------|----------------|----------------|

And it feels now, just like heaven's coming down.
Your soul shakes free, as its conscience hits the ground.
These signs, this fate, takes the path you didn't choose.
Stay strong, keep faith, there's a change that's coming through.

[Outro]
e|----------------|----------------|
B|--0-2-3---------|--0-2-3---------|
G|--------2-0---2-|0-------2-0---2-| x5 (fading out)
D|------------4---|------------4---|
A|----------------|----------------|
E|----------------|----------------|
(Hold on my love)

Full lyrics (what's in the song, not what's at the www.teaparty.com
website)

Verse 1:
With nothing to lose
you'd waste away,
obscured in exile.
They've witnessed the times
you've gone astray,
whose fault?  Now you're thinking...
There's nothing to prove
A snapshot from the crowd to the shore, baby...

Chorus 1:
And it feels now,
just like heaven's coming down

Verse 2:
So strange are the ways
they all have changed,
still life it stays the same.
A break from the past
could make it last, oh,
maybe just a little longer.
There's nothing to prove...
A snapshot from the crowd to the shore, baby...

Chorus 2:
And it feels now,
just like heaven's coming down
Your soul shakes free
as its conscience hits the ground

Bridge:
You surrender
Love under will
Rest assured baby,
You're adored

Chorus 3:
And it feels now,
just like heaven's coming down.
Your soul shakes free,
as its conscience hits the ground.
these signs, this fate,
takes the path you didn't choose.
Stay strong, keep faith,
there's a change that's coming through.

Outro:
hold on my love
hold on...

Now the easier version of that chorus/intro riff:

e|----------------|----------------|----------------|----------------|
B|--0-2-3---------|--3-2---0-------|--0-2-3---------|--0-2-3---------|
G|--------2-0---2-|------2---------|--------2-0---2-|0-------2-0---2-|
D|0-----------4---|0---------4-5-4-|0-----------4---|------------4---|
A|----------------|----------------|----------------|----------------|
E|----------------|----------------|----------------|----------------|

            
            
Suggest correction
Creating personal tab
Creating personal tab
You can edit any tab online and save it as your Personal.

You can edit, replace or remove any tab part or add personal notes – all changes will be seen only by you.

Personal tabs can be accessed anytime from any device, even offline.
Learn more »
comments
print report bad tab
3 comments total.
0 reply
G Hatswell 31 Nov 09, 2005 05:59 AM

0verall i think its a pretty good tab. however, the beginning notes of each bar are all the same note. i think in the song they change a little bit per bar to give it some melody. tab version 2 of this song tries to incorporate it a little, check theirs out.

0 reply
sf.corp 10 Jun 27, 2006 11:05 AM

Great Tab

0 reply
Lord.Of.The.Str 10 Jul 28, 2014 04:01 PM

The Tea Party - Heaven Coming Down
Tabbed by Kevin Frederiksen
You've seen the rest, now have the best
This is truly 100% Accurate
Feel free to get a hold of me by email!
I can send you a video of this song taught in detail.

Guitar Tuning:

D: down 1 whole steps
B:
F#: down 1\2 step
D:
B: up 2 steps
F#: up 2 steps

Main Chorus:

D|--|---0-----0----------0----------0-----|--0-----0----------0----------0-----|------------|------------|
B---|-0--------2-0-----0--------0---------|0--------2-0-----0--------0---------|------------|------------|
F#|--|--7---0----3----0--7---0-----7-----0-|-7---0----3----0--7---0-----7-----0-|------------|------------|
D|--|----7--7-------5-----7--7-5-----7---7|---7--7-------5-----7--7-5-----7---7|------------|------------|
B|--|-----8-------/7-------8-----------8--|----8-------/7-------8-----------8--|------------|------------|
F#|7-|8-------3--------5------------------|8-------3--------5------------------|8--4 Beats--|3--4 Beats--|

D|------------|------------|------------|------------|------------|------------|------------|------------|
B|------------|------------|------------|------------|------------|------------|------------|------------|
F#|------------|------------|------------|------------|------------|------------|------------|------------|
D|------------|------------|------------|------------|------------|------------|------------|------------|
B|------------|------------|------------|------------|------------|------------|------------|------------|
F#|5--4 Beats--|1--4 Beats--|8--4 Beats--|3--4 Beats--|5--4 Beats--|1--4 Beats--|8--4 Beats--|3--4 Beats--|

D|0--
B|0--
F#|0--
D|0-- Strum for 4 beats then back to main Chorus
B|0--
F#|1--

Bridge:

D|---------------------------------------------------------------------------------------|
B|---------------------------------------------------------------------------------------|
F#|------0-------------0-----------------0-------------0-----------------0-------------0--|
D|----0--------------0-0--------------0-------------0--0--------------0-------------0--0-|
B|-0-2-5------------2--------------0-2-5-------------0-------------0-2-5-------------0---|
F#|3--------------0-1--------------3--------------0-1--------------3--------------0-1-----|

D|------------------------7--|
B|--------0--------0---5-7---|
F#|------0--7--------7-8------|
D|----0--7-------7-----------|
B|-0-2-5---------------------|
F#|3--------------------------|

Back to Main Chorus! Repeat~ Fade

theoriginalsin35@gmail.com

guest
Wanna post a correction for this tab? Suggest correction