Oops, an error
Loading. Please wait.

For You I Will Confidence bass

2,664 views 1 this week
1 commentread comment
1 2 3 4 5
3 more votes to show rating
add to favorites
×
Save as Personal and add changes to this tab that will be seen only by you. Learn more ›
×
You can save this tab as Personal to edit and correct it or add notes. All changes will be seen only by you. Learn more »
launch autoscroll
font size
0
reset
guitar tuner
edit
Autoscroll
slow
fast
+/-
esc
set tempo
stop
Difficulty
intermediate
FOR YOU I WILL [CONFIDENCE] - Teddy Geiger

This is the bass part for the radio version of the song. This is my first
 posted tab and I know its not completely correct but it works and it is
pretty much dead on except for the chorus at times I think. I've added a
little bass where it actually isn't in the real song, just thought it sounded
 better. E-mail any questions or suggestions and enjoy!


VERSE 1    x's 2
G|-------------------------------------------------------------------------|
D|-------11----------9-----------------------------------------------------|
A|----------12---------9----------------------7h9--------------------------|
E|--9~-9~--------7~-7~------5~-5~--0-2--5~-5~------------------------------|


VERSE 1 - bass comes in for 3rd line with drums, play once
G|-------------------------------------------------------------------------|
D|-------------------------------------------------------------------------|
A|------------------------------------------------------------------7h9----|
E|--12-12-12-12---11-11-11-11---9-9-9-9---7-7-7---5~-5~--0-2--5~-5~--------|

VERSE 1 - play once then chorus
G|-------------------------------------------------------------------------|
D|-------11----------9-----------------------------------------------------|
A|----------12---------9----------2-4---------7h9--------------------------|
E|--9~-9~--------7~-7~------2-222------22-222------------------------------|

CHORUS 1 - listen to song and you'll see how many times to hit notes
G|-------------------------------------------------------------------------|
D|-------------------------------------------------------------------------|
A|-------------------------------------------------------------------------|
E|--5x-------7x------12-12-12-12--11-11-11-11---9x-------------------------|

G|-------------------------------------------------------------------------|
D|------------------------11--11-----9-9----7-7----------------------------|
A|----------------------12--12------9-9----7-7-----------------------------|
E|--5x-------7x------9------------7------5------5-5--7---------------------|

G|-------------------------------------------------------------------------|
D|-----11--11-----9-9------------------------------------------------------|
A|----12--12------9-9------------------------------------------------------|
E|--9----------7-------5~--------------------------------------------------|

VERSE 2 - x's 2
G|-------------------------------------------------------------------------|
D|----------11~---------9~-------7--7------7-------------------------------|
A|------12-9------9----9-------77--7-----77--------------------------------|
E|--99-----------7---7-----55---------55-----5-7---------------------------|

VERSE 2 - 3rd line of verse 2
G|-------------------------------------------------------------------------|
D|------------------------------------------------------7--7------7--------|
A|----------------------------------------------------77--7-----77---------|
E|--12-12-12-12---11-11-11-11---9-9-9-9---7-7-7---55---------55-----5-7----|

VERSE 2 - last line of verse 2
G|-------------------------------------------------------------------------|
D|----------11~---------9~-------------------------------------------------|
A|------12-9------9----9---------2-4---------7h9---------------------------|
E|--99-----------7---7-----2-222------22-222-------------------------------|

CHORUS 2
G|-------------------------------------------------------------------------|
D|-------------------------------------------------------------------------|
A|-------------------------------------------------------------------------|
E|--5x-------7x------12-12-12-12--11-11-11-11---9x-------------------------|

G|-------------------------------------------------------------------------|
D|------------------------11--11-----9-9----7-7---7------------------------|
A|----------------------12--12------9-9----7-7---6-7-----------------------|
E|--5x-------7x------9------------7------5------5--------------------------|

G|-------------------------------------------------------------------------|
D|-------------------------------------------------------------------------|
A|-------------------------------------------------------------------------|
E|--5x-------7x------12-12-12-12--11-11-11-11---9x-------------------------|

G|-------------------------------------------------------------------------|
D|------------------------11--11-----9-9----7-7----------------------------|
A|----------------------12--12------9-9----7-7-----------------------------|
E|--5x-------7x------9------------7------5------5-5--7---------------------|

G|-------------------------------------------------------------------------|
D|-----11--11------9-9----7-7---7-------11--11----9-9-----7-7--------------|
A|----12--12------9-9----7-7---6-7-----12--12----9-9-----7-7---------------|
E|--9----------7-------5------5------9---------7-------5------5-5--7-------|

BRIDGE
G|-----------------------------------8h999--9h11-11-11--11h13-13-13--16-14-13-|
D|-14-14-14--13-13-13--11-11-11--999------------------------------------------|
A|----------------------------------------------------------------------------|
E|----------------------------------------------------------------------------|

G|---------------------------------------------8h999--9h11-11-11--11h13-13-13--16-14-13-|
D|-14-14-14--13-13-13-------------------------------------------------------------------|
A|---------------------16-16-16--14-14h16-14--------------------------------------------|
E|-------------------------------------------0~-----------------------------------------|

G|------------------------------------------------------------------------------------|
D|-14-14-14--13-13-13------------------------14-14-14--13-13-13-----------------------|
A|---------------------16-16-16--14-14h16-14--------------------16-16-16--14-14h16-14-|
E|------------------------------------------------------------------------------------|

G|-------------------------------------------------------------------------|
D|-------------------------------------------------------------------------|
A|-------------------------------------------------------------------------|
E|-9x----------5x----------7x---------5x------------12x--------------------|

CHORUS FINAL
G|-------------------------------------------------------------------------|
D|-------------------------------------------------------------------------|
A|-------------------------------------------------------------------------|
E|--5x-------7x------12-12-12-12--11-11-11-11---9x-------------------------|

G|-------------------------------------------------------------------------|
D|------------------------11--11-----9-9----7-7---7------------------------|
A|----------------------12--12------9-9----7-7---6-7-----------------------|
E|--5x-------7x------9------------7------5------5--------------------------|

G|-------------------------------------------------------------------------|
D|-------------------------------------------------------------------------|
A|-------------------------------------------------------------------------|
E|--5x-------7x------12-12-12-12--11-11-11-11---9x-------------------------|

G|-------------------------------------------------------------------------|
D|------------------------11--11-----9-9----7-7----------------------------|
A|----------------------12--12------9-9----7-7-----------------------------|
E|--5x-------7x------9------------7------5------5-5--7---------------------|

G|-------------------------------------------------------------------------|
D|-----11--11------9-9----7-7----------------------------------------------|
A|----12--12------9-9----7-7----7-7h9--------------------------------------|
E|--9----------7-------5------5--------9~---7~---5~-5~--7--9~---7~---5~----|

and there it is, hope you enjoy it and rate and e-mail if you want, any feedback would 
appreciated.

            
            
Suggest correction
Creating personal tab
Creating personal tab
You can edit any tab online and save it as your Personal.

You can edit, replace or remove any tab part or add personal notes – all changes will be seen only by you.

Personal tabs can be accessed anytime from any device, even offline.
Learn more »
Give kudos to tab author, rate the tab!
1 2 3 4 5
comments
print report bad tab
1 comment total.
0 reply
bfunkle 10 Jun 13, 2008 02:14 PM

ok i forgot to register this tab but it was made by bfunkle and my email is bargebra@yahoo.com so if you have any questions or suggestions please let me know! and also please let me know if you know how i can claim it officially haha.

guest
Wanna post a correction for this tab? Suggest correction