Oops, an error
Loading. Please wait.

Hop A Plane tab

version 2
version 2

Whole song

Interactive

11,811 views 18 this week
no commentswrite comment
1 2 3 4 5
x 4
add to favorites
×
Save as Personal and add changes to this tab that will be seen only by you. Learn more ›
×
You can save this tab as Personal to edit and correct it or add notes. All changes will be seen only by you. Learn more »
launch autoscroll
font size
0
reset
how to read this tab
guitar tuner
edit
Autoscroll
slow
fast
+/-
esc
set tempo
stop
Author
Artist: Tegan and Sara
Song: Hop a Plane
Album: The Con
Tuning: Standard





e------------------------I
B------------------------I
G--7-7--12-12--7-7-------I
D--7-7--12-12--7-7--7-7--I
A--5-5--10-10--5-5--7-7--I
E-------------------5-5--I

e------------------------I
B------------------------I
G--7-7--12-12--7-7-------I
D--7-7--12-12--7-7--7-7--I
A--5-5--10-10--5-5--7-7--I
E-------------------5-5--I
I took the train back
Back to where I came from
I took it all alone it's been so long I know
Imagine me that my heart asleep with no air
Begging "ocean please, help me drown these memories"


e-----------------I
B-----------------I
G--7---7----------I
D--7---7---5---7--I
A--5---4---5---7--I
E----------3---5--I
All I need to hear is that you're not mine you're not mine


e------------------------I
B------------------------I
G--7-7--12-12--7-7-------I
D--7-7--12-12--7-7--7-7--I
A--5-5--10-10--5-5--7-7--I
E-------------------5-5--I
I'm moving east there's somewhere far away from
The sight of my hands the sight of me not moving
You can't just hop a plane and come and visit me again
I claim it's in my head and I regret offering


e-----------------I
B-----------------I
G--7---7----------I
D--7---7---5---7--I
A--5---4---5---7--I
E----------3---5--I
All I need to hear is that you're not mine you're not mine
All I'd liked to hear is that you're not mine you're not mine


e---------------------I
B---------------------I
G------------12---14--I
D--12---12---12---14--I
A--12---12---10---12--I
E--10---9-------------I
You take a second take a second take a year take a year
You took me out and took me in and told me all of this
And then you take a moment take a moment take a year take a year
You help me out I listen in you taught me all of this and then


e-----------------I
B-----------------I
G--7---7----------I
D--7---7---5---7--I
A--5---4---5---7--I
E----------3---5--I

All I want to hear is that you're not mine you're not mine
All I want to hear is that you're not mine you're not mine
All I need to hear is that you're not mine you're not mine
All I want to hear is that you're not mine you're not mine




            
            
Suggest correction
Creating personal tab
Creating personal tab
You can edit any tab online and save it as your Personal.

You can edit, replace or remove any tab part or add personal notes – all changes will be seen only by you.

Personal tabs can be accessed anytime from any device, even offline.
Learn more »
comments
print report bad tab
guest
You may want to rate the tab now too:
select rating
Wanna post a correction for this tab? Suggest correction