Oops, an error
Loading. Please wait.

Diary Of A Young Man tab

118 views 6 this week
1 commentread comment
1 2 3 4 5
3 more votes to show rating
add to favorites
×
Save as Personal and add changes to this tab that will be seen only by you. Learn more ›
×
You can save this tab as Personal to edit and correct it or add notes. All changes will be seen only by you. Learn more »
launch autoscroll
font size
0
reset
how to read this tab
guitar tuner
edit
Autoscroll
slow
fast
+/-
esc
set tempo
stop
About this tab version
This song isn't that hard to play, but the timing can get really messy at some parts. Originally played from D Standard, but transcribed for standard tuning. Use slapback delay on your guitar so you can play it like original. Was this info helpful? Yes No
Standard tuning, I prefer using echo (or slapback delay) effect on this one.

Originally, this song is in the key of F major, and the acoustic guitar is tuned to DGCFAD, but I've transcri
bed it for standard tuning.

This riff basically goes for the first 40 seconds of the song.

[Intro/Verse]
E|----------------------------------------|
B|----------------------------------------|
G|--------3--2------------0--2--0---------|
D|-----3----------------------------------|
A|--3-----------3v-----3-----------1v-----|
E|----------------------------------------|

[Break]
E|-------------------------------------------------|
B|-------------------------------------------------|
G|-------------------------------------------------|
D|--3v-----3--5--3--5--5--5--3--3v-----3--5/7--7v--|
A|-------------------------------------------------|
E|-------------------------------------------------|

E|---------------|
B|---------------|
G|--------3--2v--|
D|--3--5---------|
A|---------------|
E|---------------|

[Verse]
E|----------------------------------------|
B|----------------------------------------|
G|--------3--2------------0--2--0---------|
D|-----3----------------------------------|
A|--3-----------3v-----3-----------1v-----|
E|----------------------------------------|

[Break]
E|----------------------------------------|
B|----------------------------------------|
G|----------------------------------------|
D|--3v--------3--5--5--5--5--5--3--3--3v--|
A|----------------------------------------|
E|----------------------------------------|

E|-------------------------------|
B|-------------------------------|
G|--0--3--2v-----3--2--0--3--2v--|
D|-------------------------------|
A|-------------------------------|
E|-------------------------------|

[Verse]
E|----------------------------------------|
B|----------------------------------------|
G|--------3--2------------0--2--0---------|
D|-----3----------------------------------|
A|--3-----------3v-----3-----------1v-----|
E|----------------------------------------|
(repeat as many times needed)

[Break]
E|----------------------------------------|
B|----------------------------------------|
G|----------------------------------------|
D|--3v-----3--5--5--5--5--5--3--3--3--3v--|
A|----------------------------------------|
E|----------------------------------------|

E|----------------------------|
B|----------------------------|
G|--3--2v-----3--2--0--3--2v--|
D|----------------------------|
A|----------------------------|
E|----------------------------|

[Outro]
E|------------------------------|
B|------------------------------|
G|------------------------------|
D|--3--5--5--5/7--7--7/10--10v--|
A|------------------------------|
E|------------------------------|

E|---------------------------------------------|
B|---------------------------------------------|
G|--5--5--5--3--2--3--2-----3--2--0--3--2--2v--|
D|---------------------------------------------|
A|---------------------------------------------|
E|---------------------------------------------|

E|--------------------------------------------------------------|
B|--------------------------------------------------------------|
G|--------------2--3--2v-----5--5--5--5v-----5--5--3--2--3--2v--|
D|--7/3--3v-----------------------------------------------------|
A|--------------------------------------------------------------|
E|--------------------------------------------------------------|


**************************************************************************

| h - hammer on
| p - pull off
| b - bend string up
| r - release bend
| / - slide up
| \ - slide down
| v - vibrato (sometimes written as ~)
| t - right hand tap
| x - play 'note' with heavy damping

**************************************************************************

            
            
Suggest correction
Creating personal tab
Creating personal tab
You can edit any tab online and save it as your Personal.

You can edit, replace or remove any tab part or add personal notes – all changes will be seen only by you.

Personal tabs can be accessed anytime from any device, even offline.
Learn more »
Give kudos to tab author, rate the tab!
1 2 3 4 5
comments
print report bad tab
1 comment total.
0 reply
dustnspace 10 Oct 10, 2017 03:18 PM

Rhythm Chords?

guest
You may want to rate the tab now too:
select rating
Wanna post a correction for this tab? Suggest correction