Oops, an error
Loading. Please wait.

Move With The Season chords

version 2
version 2

Whole song

  • Chords based on live recordings.
  • This is how you play the album version with standa... Show more
by Temples
130 views 12 this week
no commentswrite comment
1 2 3 4 5
3 more votes to show rating
add to favorites
×
Save as Personal and add changes to this tab that will be seen only by you. Learn more ›
×
You can save this tab as Personal to edit and correct it or add notes. All changes will be seen only by you. Learn more »
launch autoscroll
font size
0
reset
transpose
0
reset
simplify chords
display chords
guitar tuner
edit
Autoscroll
slow
fast
+/-
esc
set tempo
stop
About this tab version
This is how you play the album version with standard tuning. If you wish to play the live version move everything up 2 frets. Was this info helpful? Yes No
Strumming
There is no strumming pattern for this song yet. and get +5 IQ
Temples - Move With The Season
This is how you play the album version with standard tuning. If you wish to play the live version
move everything up 2 frets.

[Main Riff]
e|-----------------------------------------------------------------------|
B|-8-------10-------6--------8-------------------------------------------|
G|-7-------9--------7--------9-------------------------------------------|
D|-8-------10-------8--------8-------------------------------------------|
A|-----------------------------------------------------------------------|
E|-----------------------------------------------------------------------|
 Gm        Am       A#       E dim

[Chorus]
Gm         Am       A#        E dim
When the time comes move with the season
Gm         Am       A#        E dim
Lend your young ears to the sound of day
Gm         Am       A#        E dim
When the time comes groove with the feeling
Gm         Am       A#        E dim
Lend your young ears to the sound of day

[Main Riff]
e|-----------------------------------------------------------------------|
B|-8-------10-------6--------8-------------------------------------------|
G|-7-------9--------7--------9-------------------------------------------|
D|-8-------10-------8--------8-------------------------------------------|
A|-----------------------------------------------------------------------|
E|-----------------------------------------------------------------------|
 Gm        Am       A#       E dim

[other guitar does this]
e|-----------------------------------------------------------------------|
B|-8-------6-------5--------5-------------------------------------------|
G|-7-------7-------5--------7-------------------------------------------|
D|-8-------8-------8--------8-------------------------------------------|
A|-----------------------------------------------------------------------|
E|-----------------------------------------------------------------------|
  Gm       A#     C9(5)     A#-5                             

[Chorus]
 Gm         Am       A#        E dim
When the time comes move with the season
 Gm         Am       A#        E dim
Lend your young ears to the sound of day
 Gm         Am       A#        E dim
When the time comes groove with the feeling
 Gm         Am       A#        E dim
Lend your young ears to the sound of day

[Main Riff]
e|-----------------------------------------------------------------------|
B|-8-------10-------6--------8-------------------------------------------|
G|-7-------9--------7--------9-------------------------------------------|
D|-8-------10-------8--------8-------------------------------------------|
A|-----------------------------------------------------------------------|
E|-----------------------------------------------------------------------|
 Gm        Am       A#       E dim

Gm                 A#      
In our place where to start
C9                    A#-5 
Stretch the sunlight on our minds
  Gm                 A#       
Bringing life to the sights
C9                    A#-5 
Waiting on some skies of light

[Verse]
Gm                          C7
Take your hand I'll make it out now never
Cm                         F      F#7   Gm
Take the crystal book from me now always see
                 C7
Think of all the glass
Cm                          F         F#7  Gm
The see through through the night now paper white

                          C7
Take your plants upon the crimson moonlight
Cm                         F          F#7   Gm
Take your crystal from the ground now always see
                        C7
The sea through colored worlds
Cm                          F         F#7  Gm
The see through through the night now paper white

[Chorus]
 Gm         Am       A#        E dim
When the time comes move with the season
 Gm         Am       A#        E dim
Lend your young ears to the sound of day
 Gm         Am       A#        E dim
When the time comes groove with the feeling
 Gm         Am       A#        E dim
Lend your young ears to the sound of day

[Main Riff]
e|-----------------------------------------------------------------------|
B|-8-------10-------6--------8-------------------------------------------|
G|-7-------9--------7--------9-------------------------------------------|
D|-8-------10-------8--------8-------------------------------------------|
A|-----------------------------------------------------------------------|
E|-----------------------------------------------------------------------|
 Gm        Am       A#       E dim

e|-----------------------------------------------------------------------|
B|-8-------10-------6--------8-------------------------------------------|
G|-7-------9--------7--------9-------------------------------------------|
D|-8-------10-------8--------8-------------------------------------------|
A|-----------------------------------------------------------------------|
E|-----------------------------------------------------------------------|
 Gm        Am       A#       E dim

[Verse]
Gm                          C7
Take your hand I'll make it out now never
Cm                         F      F#7   Gm
Take the crystal book from me now always see
                 C7
Think of all the glass
Cm                          F         F#7  Gm
The see through through the night now paper white

                          C7
Take your plants upon the crimson moonlight
Cm                         F          F#7   Gm
Take your crystal from the ground now always see
                        C7
The sea through colored worlds
Cm                          F         F#7  Gm
The see through through the night now paper white

[Bridge]
                            A7
Take your hand I'll move it far
Cm                      D7
Save the memory of the star
         A#maj7
Now your life has changed
    C
The older is now younger
        Cm
And you know when you are fonder
        D7                 Gm
Of the things you had from birth

                             A7
Take your hand I'll move it far
Cm                      D7
Save the memory of the star
         A#maj7
Now your life has changed
    C
The older is now younger
        Cm
And you know when you are fonder
        D7
Of the things you had from birth

            
            
Suggest correction
Creating personal tab
Creating personal tab
You can edit any tab online and save it as your Personal.

You can edit, replace or remove any tab part or add personal notes – all changes will be seen only by you.

Personal tabs can be accessed anytime from any device, even offline.
Learn more »
Give kudos to tab author, rate the tab!
1 2 3 4 5
comments
print report bad tab
guest
You may want to rate the tab now too:
select rating
Wanna post a correction for this tab? Suggest correction