Oops, an error
Loading. Please wait.

Back On Track album tab

version 1
version 1

Album

Whole song

16 views 1 this week
no commentswrite comment
1 2 3 4 5
3 more votes to show rating
add to favorites
×
Save as Personal and add changes to this tab that will be seen only by you. Learn more ›
×
You can save this tab as Personal to edit and correct it or add notes. All changes will be seen only by you. Learn more »
launch autoscroll
font size
0
reset
how to read this tab
guitar tuner
edit
Autoscroll
slow
fast
+/-
esc
set tempo
stop
1) Running Scared
        
2) Refuse To Change
        
3) The Same Side        

4) We Know The Truth    

5) Still Lives  

6) You Taught Them      

7) Lost Sight   

8) Back On Track        

9) Opportunities        

10) Back It Up  

11) False Convictions   

12) Frame Of Mind       

13) Our Times   

14) Stronger Than Before


1) Running Scared

[Intro]
e|------------------------------------|--------------------------------------|
b|------------------------------(x2)--|--------------------------------------|
G|--5-4----5-4--------5-4-------------|--5-4----5-4--------------------------|
D|--5-4-5--5-4-5--2---5-4-5-2---------|--5-4-5--5-4-5------------------------|
A|--3-2-5--3-2-5--2---3-2-5-2---------|--3-2-5--3-2-5------------------------|
E|------3------3--0-------3-0---------|------3------3------------------------|

e|---------------------------------------------------------------------------|
b|---------------------------------------------------------------------------|
G|--9-9-9------------10-10-10-----------9-9-9------------10------------------|
D|--9-9-9--10-10-10--10-10-10--10-12----9-9-9--10-10-10--10------------------|
A|--7-7-7--10-10-10--8--8--8---10-12----7-7-7--10-10-10--8-------------------|
E|---------8--8--8-------------8--10-----------8--8--8-----------------------|

[Verse]
e|---------------------------------------------------------------------------|
b|---------------------------------------------------------------------------|
G|--9-9-9------------10-10-10-----------9-9-9------------10-10-10-10---------|
D|--9-9-9--10-10-10--10-10-10--10-12----9-9-9--10-10-10--10-10-10-10---------| x2
A|--7-7-7--10-10-10--8--8--8---10-12----7-7-7--10-10-10--8--8--8--8----------|
E|---------8--8--8-------------8--10-----------8--8--8-----------------------|

e|---------------------------------------------------------------------------|
b|---------------------------------------------------------------------------|
G|--9-9-9------------10-10-10-----------9-9-9------------10-10-10-10---------|
D|--9-9-9--10-10-10--10-10-10--10-12----9-9-9--10-10-10--10-10-10-10---------|
A|--7-7-7--10-10-10--8--8--8---10-12----7-7-7--10-10-10--8--8--8--8----------|
E|---------8--8--8-------------8--10-----------8--8--8-----------------------|
    PMPMPM PM PM PM  PM PM PM  MP PM    PMPMPM PM PM PM  PM PM PM PM

E|---------------------------------------------------------------------------|
B|---------------------------------------------------------------------------|
G|--9-9-9------------10-10-10-----------9-9-9------------10-10-10-10---------|
D|--9-9-9--10-10-10--10-10-10--10-12----9-9-9--10-10-10--10-10-10-10---------|
A|--7-7-7--10-10-10--8--8--8---10-12----7-7-7--10-10-10--8--8--8--8----------|
E|---------8--8--8-------------8--10-----------8--8--8-----------------------|

[Chorus}
e|---------------------------------------------------------------------------|
b|---------------------------------------------------------------------------|
G|--9-9-9-9-9-9-9-9--5-4-----9-9-9-9-9--5-4---5------------------------------|
D|--9-9-9-9-9-9-9-9--5-4-5---9-9-9-9-9--5-4-5-5------------------------------| x2
A|--7-7-7-7-7-7-7-7--3-2-5---7-7-7-7-7--3-2-5-3------------------------------|
E|-----------------------3------------------3--------------------------------|

[Verse]
e|---------------------------------------------------------------------------|
b|---------------------------------------------------------------------------|
G|--9-9-9------------10-10-10-----------9-9-9------------10-10-10-10---------|
D|--9-9-9--10-10-10--10-10-10--10-12----9-9-9--10-10-10--10-10-10-10---------| x2
A|--7-7-7--10-10-10--8--8--8---10-12----7-7-7--10-10-10--8--8--8--8----------|
E|---------8--8--8-------------8--10-----------8--8--8-----------------------|

e|---------------------------------------------------------------------------|
b|---------------------------------------------------------------------------|
G|--9-9-9------------10-10-10-----------9-9-9------------10-10-10-10---------|
D|--9-9-9--10-10-10--10-10-10--10-12----9-9-9--10-10-10--10-10-10-10---------|
A|--7-7-7--10-10-10--8--8--8---10-12----7-7-7--10-10-10--8--8--8--8----------|
E|---------8--8--8-------------8--10-----------8--8--8-----------------------|
    PMPMPM PM PM PM  PM PM PM  MP PM    PMPMPM PM PM PM  PM PM PM PM

e|---------------------------------------------------------------------------|
b|---------------------------------------------------------------------------|
G|--9-9-9------------10-10-10-----------9-9-9------------10-10-10-10---------|
D|--9-9-9--10-10-10--10-10-10--10-12----9-9-9--10-10-10--10-10-10-10---------|
A|--7-7-7--10-10-10--8--8--8---10-12----7-7-7--10-10-10--8--8--8--8----------|
E|---------8--8--8-------------8--10-----------8--8--8-----------------------|

[Chorus}
e|---------------------------------------------------------------------------|
b|---------------------------------------------------------------------------|
G|--9-9-9-9-9-9-9-9--5-4-----9-9-9-9-9--5-4---5------------------------------|
D|--9-9-9-9-9-9-9-9--5-4-5---9-9-9-9-9--5-4-5-5------------------------------| x2
A|--7-7-7-7-7-7-7-7--3-2-5---7-7-7-7-7--3-2-5-3------------------------------|
E|-----------------------3------------------3--------------------------------|

[Outro]
e|---------------------------------------------------------------------------|
b|---------------------------------------------------------------------------|
G|--*-*-*-*-*-*-*-*-*-*--5-4----*-*-*-*-*-*--5-4---5-------------------------|
D|--2-2-2-2-2-2-2-2-2-2--5-4-5--2-2-2-2-2-2--5-4-5-5-------------------------| x2
A|--2-2-2-2-2-2-2-2-2-2--3-2-5--2-2-2-2-2-2--3-2-5-3-------------------------|
E|--0-0-0-0-0-0-0-0-0-0------3--0-0-0-0-0-0------3---------------------------|
    PMPMPMPMPMPMPMPMPMPM        PMPMPMPMPMPM

e|---------------------------------------------------------------------------|
b|---------------------------------------------------------------------------|
G|--7-7-7-7-7-7--/12-12-12-12--11-11-11-11-11-------------------5-5-5-5-5-5--|
D|--7-7-7-7-7-7--------------------------------5-5-5-5-5-5-5-5--5-5-5-5-5-5--|
A|--5-5-5-5-5-5---10-10-10-10---9--9--9--9--9--5-5-5-5-5-5-5-5--3-3-3-3-3-3--|
E|---------------------------------------------3-3-3-3-3-3-3-3---------------|

e|---------------------------------------------------------------------------|
b|---------------------------------------------------------------------------|
G|--*-*-*-*-*-*-*-*-*-*--5-4----*-*-*-*-*-*--5-4---5-------------------------|
D|--2-2-2-2-2-2-2-2-2-2--5-4-5--2-2-2-2-2-2--5-4-5-5-------------------------| x2
A|--2-2-2-2-2-2-2-2-2-2--3-2-5--2-2-2-2-2-2--3-2-5-3-------------------------|
E|--0-0-0-0-0-0-0-0-0-0------3--0-0-0-0-0-0------3---------------------------|
    PMPMPMPMPMPMPMPMPMPM        PMPMPMPMPMPM

e|---------------------------------------------------------------------------|
b|---------------------------------------------------------------------------|
G|--7-7-7-7-7-7--/12-12-12-12--11-11-11-11-11-------------------5-5-5-5-5-5--|
D|--7-7-7-7-7-7--------------------------------5-5-5-5-5-5-5-5--5-5-5-5-5-5--|
A|--5-5-5-5-5-5---10-10-10-10---9--9--9--9--9--5-5-5-5-5-5-5-5--3-3-3-3-3-3--|
E|---------------------------------------------3-3-3-3-3-3-3-3---------------|

e|---------------------------------------------------------------------------|
b|---------------------------------------------------------------------------|
G|--5-4----------------------------------------------------------------------|
D|--5-4-5-2-----2------------------------------------------------------------|
A|--3-2-5-2--/--2------------------------------------------------------------|
E|------3-0-----0------------------------------------------------------------|
    PMPMPM


2) Refuse to Change 

[Intro]                           
e|--------------------------------------|
b|--------------------------------------|
G|----------------7-----5---------------|
D|--9--9----9--9--7-5-7-5---9--9--9-----|
A|--9--9----9--9--5-5-7-3---9--9--9-----|
E|--7--7----7--7----3-5-----7--7--7-----|

[Verse]
e|------------------------------------|
b|------------------------------------|
G|---------7-5-7--5-5-5---------------|
D|--9-9-9--7-5-7--5-5-5--5-7----------| x4
A|--9-9-9--5/3/5--3-3-3--5-7----------|
E|--7-7-7----------------3-5----------|

[Chorus]
e|---------------------------------------------------------------------------|
b|---------------------------------------------------------------------------|
G|--------------7-5-7--5-5-5-------------------------------------------------|
D|--9----9-9-9--7-5-7--5-5-5--5-7--------------------------------------------| x2
A|--9----9-9-9--5/3/5--3-3-3--5-7--------------------------------------------|
E|--7----7-7-7----------------3-5--------------------------------------------|

[Verse]
e|------------------------------------|
b|------------------------------------|
G|---------7-5-7--5-5-5---------------|
D|--9-9-9--7-5-7--5-5-5--5-7----------| x4
A|--9-9-9--5/3/5--3-3-3--5-7----------|
E|--7-7-7----------------3-5----------|

[Outro]
e|--------------|
b|--------------|
G|--------------|
D|--9--9--9-----|
A|--9--9--9-----|
E|--7--7--7-----|

e|--------------------------------------------|
b|--------------------------------------------|
G|-------------7----------------7-----5-------|
D|--9-9-9-9-9--7-5---9-9-9-9-9--7-5-7-5-------| x4
A|--9-9-9-9-9--5-5---9-9-9-9-9--5-5-7-3-------|
E|--7-7-7-7-7----3---7-7-7-7-7----3-5---------|

e|---------------|
b|---------------|
G|---------------|
D|--9--9---------|
A|--9--9---------|
E|--7--7---------|

3) The Same Side 

[Intro]

e|-----------------|
b|-----------------|
G|--9--5-5-5--7-7--|
D|--9--5-5-5--7-7--|
A|--7--3-3-3--5-5--|
E|-----------------|

[Verse]

e|---------------------------------------------------------|
b|---------------------------------------------------------|
G|--9-9-9-9-9--5-5-5-5-5-------------5-5-5--7-7-7----------|
D|--9-9-9-9-9--5-5-5-5-5--7-7-7-7-7--5-5-5--7-7-7----------| x4
A|--7-7-7-7-7--3-3-3-3-3--7-7-7-7-7--3-3-3--5-5-5----------|
E|------------------------5-5-5-5-5------------------------|

[Chorus]

e|---------------------------------------------------------------------------|
b|---------------------------------------------------------------------------|
G|-----------7-7-7-7-------------7-7-7-7-7------------7-7-7-7-----------7-7--|
D|--9-9-9-9--7-7-7-7--9-9-9-9-9--7-7-7-7-7---9-9-9-9--7-7-7-7--5-4-5-4--7-7--| x2
A|--9-9-9-9--5-5-5-5--9-9-9-9-9--5-5-5-5-5---9-9-9-9--5-5-5-5--5-4-5-4--5-5--|
E|--7-7-7-7-----------7-7-7-7-7--------------7-7-7-7-----------3-2-3-2-------|
      PMPMPM          PMPMPMPMPM PMPMPMPMPM    PMPMPM    

[Verse]

e|---------------------------------------------------------|
b|---------------------------------------------------------|
G|--9-9-9-9-9--5-5-5-5-5-------------5-5-5--7-7-7----------|
D|--9-9-9-9-9--5-5-5-5-5--7-7-7-7-7--5-5-5--7-7-7----------| x4
A|--7-7-7-7-7--3-3-3-3-3--7-7-7-7-7--3-3-3--5-5-5----------|
E|------------------------5-5-5-5-5------------------------|

[Chorus]

e|---------------------------------------------------------------------------|
b|---------------------------------------------------------------------------|
G|-----------7-7-7-7-------------7-7-7-7-7------------7-7-7-7-----------7-7--|
D|--9-9-9-9--7-7-7-7--9-9-9-9-9--7-7-7-7-7---9-9-9-9--7-7-7-7--5-4-5-4--7-7--| x2
A|--9-9-9-9--5-5-5-5--9-9-9-9-9--5-5-5-5-5---9-9-9-9--5-5-5-5--5-4-5-4--5-5--|
E|--7-7-7-7-----------7-7-7-7-7--------------7-7-7-7-----------3-2-3-2-------|
      PMPMPM          PMPMPMPMPM PMPMPMPMPM    PMPMPM    

[Outro]

e|-----------------|
b|-----------------|
G|-----------7-7---|
D|--5-4-5-4--7-7---|
A|--5-4-5-4--5-5---|
E|--3-2-3-2--------|

e|---------------------------------------------------------|
b|---------------------------------------------------------|
G|-------------7-7-7-7-7-------------------9-9-------------|
D|--9-9-9-9-9--7-7-7-7-7--5-5-4-4-5-5-4-4--9-9-------------| x2
A|--9-9-9-9-9--5-5-5-5-5--5-5-4-4-5-5-4-4--7-7-------------|
E|--7-7-7-7-7-------------3-3-2-2-3-3-2-2------------------|
      PMPMPMPM PMPMPMPMPM PMPMPMPMPMPMPMPM

e|---------------------------------------------------|
b|---------------------------------------------------|
G|-------------7-7-7-7-7-------------------9-9-------|
D|--9-9-9-9-9--7-7-7-7-7--5-5-4-4-5-5-4-4--9-9-------| x2
A|--9-9-9-9-9--5-5-5-5-5--5-5-4-4-5-5-4-4--7-7-------|
E|--7-7-7-7-7-------------3-3-2-2-3-3-2-2------------|

e|-----------------------|
b|-----------------------|
G|-----5-5-5-7-7--9------|
D|--9--5-5-5-7-7--9------|
A|--9--3-3-3-5-5--7------|
E|--7--------------------|

4) We Know The Truth 

[Intro]
e|----------------------------|
b|----------------------------|
G|--5-7-----------------------|
D|--5-7--2-2-2-2-2-2-2-2------| x3
A|--3-5--2-2-2-2-2-2-2-2------|
E|-------0-0-0-0-0-0-0-0------|
         PMPMPMPMPMPMPMPM

e|--------------------------------|
b|--------------------------------|
G|--5-7--------------------5-7----|
D|--5-7--2-2-2-2-2-2-2-2---5-7-2--|
A|--3-5--2-2-2-2-2-2-2-2---3-5-2--|
E|-------0-0-0-0-0-0-0-0-------0--|
         PMPMPMPMPMPMPMPM

[Verse]
e|----------------------------------------------------|
b|----------------------------------------------------|
G|-----------7-7-7-7--5-5-5-5--9-9-9-9--10-10-10------|
D|--2-2-2-2--7-7-7-7--5-5-5-5--9-9-9-9--10-10-10------| x6
A|--2-2-2-2--5-5-5-5--3-3-3-3--7-7-7-7--8--8--8-------|
E|--0-0-0-0-------------------------------------------|

[Chorus]
e|--------------------------------------|-------------------------------------|
b|--------------------------------------|-------------------------------------|
G|--7-9-9-7-9-9-7-9-9-7-9-9--9-9-9-9-9--|--7-9-9-7-9-9-7-9-9-7-9-9------------|
D|--7-9-9-7-9-9-7-9-9-7-9-9--9-9-9-9-9--|--7-9-9-7-9-9-7-9-9-7-9-9--5-5-5-5-5-|
A|--5/7-7-5/7-7-5/7-7-5/7-7--7-7-7-7-7--|--5/7-7-5/7-7-5/7-7-5/7-7--5-5-5-5-5-|
E|--------------------------------------|---------------------------3-3-3-3-3-|

e|--------------------------------------|
b|--------------------------------------|
G|--7-7-7--5-5-5------------------------|
D|--7-7-7--5-5-5------------------------|
A|--5-5-5--3-3-3------------------------|
E|--------------------------------------|
    PMPMPM PMPMPM

e|--------------------------------------|-------------------------------------|
b|--------------------------------------|-------------------------------------|
G|--7-9-9-7-9-9-7-9-9-7-9-9--9-9-9-9-9--|--7-9-9-7-9-9-7-9-9-7-9-9------------|
D|--7-9-9-7-9-9-7-9-9-7-9-9--9-9-9-9-9--|--7-9-9-7-9-9-7-9-9-7-9-9--5-5-5-5-5-|
A|--5/7-7-5/7-7-5/7-7-5/7-7--7-7-7-7-7--|--5/7-7-5/7-7-5/7-7-5/7-7--5-5-5-5-5-|
E|--------------------------------------|---------------------------3-3-3-3-3-|

e|--------------------------------------|
b|--------------------------------------|
G|--7-7-7--5-5-5------------------------|
D|--7-7-7--5-5-5------------------------|
A|--5-5-5--3-3-3------------------------|
E|--------------------------------------|
    PMPMPM PMPMPM

[Verse]
e|----------------------------------------------------|
b|----------------------------------------------------|
G|-----------7-7-7-7--5-5-5-5--9-9-9-9--10-10-10------|
D|--2-2-2-2--7-7-7-7--5-5-5-5--9-9-9-9--10-10-10------| x4
A|--2-2-2-2--5-5-5-5--3-3-3-3--7-7-7-7--8--8--8-------|
E|--0-0-0-0-------------------------------------------|

[Chorus]
e|--------------------------------------|-------------------------------------|
b|--------------------------------------|-------------------------------------|
G|--7-9-9-7-9-9-7-9-9-7-9-9--9-9-9-9-9--|--7-9-9-7-9-9-7-9-9-7-9-9------------|
D|--7-9-9-7-9-9-7-9-9-7-9-9--9-9-9-9-9--|--7-9-9-7-9-9-7-9-9-7-9-9--5-5-5-5-5-|
A|--5/7-7-5/7-7-5/7-7-5/7-7--7-7-7-7-7--|--5/7-7-5/7-7-5/7-7-5/7-7--5-5-5-5-5-|
E|--------------------------------------|---------------------------3-3-3-3-3-|

e|--------------------------------------|
b|--------------------------------------|
G|--7-7-7--5-5-5------------------------|
D|--7-7-7--5-5-5------------------------|
A|--5-5-5--3-3-3------------------------|
E|--------------------------------------|
    PMPMPM PMPMPM

e|--------------------------------------|-------------------------------------|
b|--------------------------------------|-------------------------------------|
G|--7-9-9-7-9-9-7-9-9-7-9-9--9-9-9-9-9--|--7-9-9-7-9-9-7-9-9-7-9-9------------|
D|--7-9-9-7-9-9-7-9-9-7-9-9--9-9-9-9-9--|--7-9-9-7-9-9-7-9-9-7-9-9--5-5-5-5-5-|
A|--5/7-7-5/7-7-5/7-7-5/7-7--7-7-7-7-7--|--5/7-7-5/7-7-5/7-7-5/7-7--5-5-5-5-5-|
E|--------------------------------------|---------------------------3-3-3-3-3-|

e|--------------------------------------|
b|--------------------------------------|
G|--7-7-7--5-5-5------------------------|
D|--7-7-7--5-5-5------------------------|
A|--5-5-5--3-3-3------------------------|
E|--------------------------------------|
    PMPMPM PMPMPM

[Break]
e|------------------------------------------|
b|------------------------------------------|
G|--7/9-7/9--7/10-7/10--7/9-7/9-------------|
D|--7/9-7/9--7/10-7/10--7/9-7/9--2-2--------| x8
A|--5/7-5/7--5/8--5/8---5/7-5/7--2-2--------|
E|-------------------------------0-0--------|
                                 PM
   
[Outro]
e|----------------------------------------------------|
b|----------------------------------------------------|
G|-----------7-7-7-7--5-5-5-5--9-9-9-9--10-10-10------|
D|--2-2-2-2--7-7-7-7--5-5-5-5--9-9-9-9--10-10-10------| x2
A|--2-2-2-2--5-5-5-5--3-3-3-3--7-7-7-7--8--8--8-------|
E|--0-0-0-0-------------------------------------------|

5) Still Live

[Intro]
e|----------------| 
b|----------------| 
G|--9-------------|
D|--9--2-2-2------| x3
A|--7--2-2-2------|
E|-----0-0-0------|
       PMPMPM

e|--------------|
b|--------------|
G|--9-----------|
D|--9-----------|
A|--7-----------| 
E|--------------|

[Verse]
e|---------------------|-----------------------| 
b|---------------------|-----------------------| 
G|--9-9-9-9-9-9--5-4---|-5-5-5-5--4-4-4-4------| 
D|--9-9-9-9-9-9--5-4-5-|-5-5-5-5--4-4-4-4------| x4
A|--7-7-7-7-7-7--3-2-5-|-3-3-3-3--2-2-2-2------| 
E|-------------------3-|-----------------------| 

[Chorus]
e|-------------------|---------------------------------|
b|-------------------|---------------------------------| 
G|---------------9-9-|--------------9-9-9-5-5-5--------| 
D|--2-2-2-2-2-2--9-9-|-2-2-2-2-2-2--9-9-9-5-5-5--------| x2
A|--2-2-2-2-2-2--7-7-|-2-2-2-2-2-2--7-7-7-3-3-3--------| 
E|--0-0-0-0-0-0------|-0-0-0-0-0-0---------------------| 
    PMPMPMPMPMPM       PMPMPMPMPMPM

e|----------------------| 
b|----------------------| 
G|--9-----9-9-9-9-9-9---| 
D|--9--2--9-9-9-9-9-9---| 
A|--7--2--7-7-7-7-7-7---| 
E|-----0----------------| 
          PMPMPMPMPMPM

[Verse]
e|---------------------|-----------------------| 
b|---------------------|-----------------------| 
G|--9-9-9-9-9-9--5-4---|-5-5-5-5--4-4-4-4------| 
D|--9-9-9-9-9-9--5-4-5-|-5-5-5-5--4-4-4-4------| x4
A|--7-7-7-7-7-7--3-2-5-|-3-3-3-3--2-2-2-2------| 
E|-------------------3-|-----------------------|  
 
[Chorus]
e|-------------------|---------------------------------|
b|-------------------|---------------------------------| 
G|---------------9-9-|--------------9-9-9-5-5-5--------| 
D|--2-2-2-2-2-2--9-9-|-2-2-2-2-2-2--9-9-9-5-5-5--------| x2
A|--2-2-2-2-2-2--7-7-|-2-2-2-2-2-2--7-7-7-3-3-3--------| 
E|--0-0-0-0-0-0------|-0-0-0-0-0-0---------------------| 
    PMPMPMPMPMPM       PMPMPMPMPMPM

e|----------------------| 
b|----------------------| 
G|--9-----9-9-9-9-9-9---| 
D|--9--2--9-9-9-9-9-9---| 
A|--7--2--7-7-7-7-7-7---| 
E|-----0----------------| 
          PMPMPMPMPMPM

[Break]
e|--------------------------|-------------------------------------------------| 
b|--------------------------|-------------------------------------------------| 
G|--9-9-9-9--7-7-7-7--------|-4-4-4-4-4--5-5-5--7-7-7-------------------------| 
D|--9-9-9-9--7-7-7-7--7-7-5-|-4-4-4-4-4--5-5-5--7-7-7-------------------------| x4
A|--7-7-7-7--5-5-5-5--7-7-5-|-2-2-2-2-2--3-3-3--5-5-5-------------------------| 
E|--------------------5-5-3-|-------------------------------------------------| 

rythm changes on the last two times, notes are the same

[Outro]
e|--------| 
b|--------|
G|--9-----| 
D|--9--2--|
A|--7--2--|
E|-----0--|

e|----------------| 
b|----------------|
G|--9-------------| 
D|--9--2-2--------| x2
A|--7--2-2--------| 
E|-----0-0--------|
       PMPM

6) You Taught Them 

[Intro]
e|-------------------------------|--------------------------------------------|
b|-------------------------------|--------------------------------------------|
G|--5-5-5--------7-7-7--4-4-4-4--|-5-5-5--------7-7-7-------------------------|
D|--5-5-5-5-5-5--7-7-7--4-4-4-4--|-5-5-5-5-5-5--7-7-7--2-2-2-2----------------| x2
A|--3-3-3-5-5-5--5-5-5--2-2-2-2--|-3-3-3-5-5-5--5-5-5--2-2-2-2----------------|
E|--------3-3-3------------------|-------3-3-3---------0-0-0-0----------------|

[Verse]
e|-------------------------------|--------------------------------------------|
b|-------------------------------|--------------------------------------------|
G|--5-5-5--------7-7-7--4-4-4-4--|-5-5-5--------7-7-7-------------------------|
D|--5-5-5-5-5-5--7-7-7--4-4-4-4--|-5-5-5-5-5-5--7-7-7--2-2-2-2----------------| x2
A|--3-3-3-5-5-5--5-5-5--2-2-2-2--|-3-3-3-5-5-5--5-5-5--2-2-2-2----------------|
E|--------3-3-3------------------|-------3-3-3---------0-0-0-0----------------|

[Chorus]
e|---------------------------------------------------------------------------|
b|---------------------------------------------------------------------------|
G|--9-7-9--------------------------------------------------------------------|
D|--9-7-9--2-2-2-2-2-2-2-----------------------------------------------------| x2
A|--7/5/7--2-2-2-2-2-2-2-----------------------------------------------------|
E|---------0-0-0-0-0-0-0-----------------------------------------------------|
           PMPMPMPMPMPMPM

[Outro]
Guitar 1
e|---------------------------------------|  
b|---------------------------------------|
G|--9-7-9--------------------------------|
D|--9-7-9--2-2-2-2-2-2-2-----------------| x2
A|--7/5/7--2-2-2-2-2-2-2-----------------|
E|---------0-0-0-0-0-0-0-----------------|
           PMPMPMPMPMPMPM

Guitar 2
e|-------------------------|------------------------|
b|-------------------------|------------------------|
G|--9-9-9-9-9-9-9-9-9-9-9--|--9-7-9-----------------|
D|-------------------------|--9-7-9--2-2-2-2-2-2-2--|
A|--7-7-7-7-7-7-7-7-7-7-7--|--7/5/7--2-2-2-2-2-2-2--|
E|-------------------------|---------0-0-0-0-0-0-0--|
                                     PMPMPMPMPMPMPM

7) Lost Sight

[Intro]
e|---------------------------------------------------| 
b|---------------------------------------------------| 
G|--10-10-10-10-10--10-10-10-10-10--9------9---------| 
D|--10-10-10-10-10--10-10-10-10-10--9--2-------------| 
A|--8--8--8--8--8---8--8--8--8--8---7--2-------------| 
E|-------------------------------------0-------------| 
    PMPMPMPMPMPMPM  PMPMPMPMPMPMPM

[Verse] 
e|------------------------------------------------------------------| 
b|------------------------------------------------------------------| 
G|--9-9-9--7-7-7--9-9-9--5-5-5--10-10-7--9-9-9--5-5-5--7-7-7-7-7----| 
D|--9-9-9--7-7-7--9-9-9--5-5-5--10-10-7--9-9-9--5-5-5--7-7-7-7-7----| x2
A|--7-7-7--5-5-5--7-7-7--3-3-3--8--8--5--7-7-7--3-3-3--5-5-5-5-5----| 
E|------------------------------------------------------------------| 
    PMPMPM PMPMPM PMPMPM PMPMPM PM PM    PMPMPM PMPMPM PMPMPMPMPM

e|-----------------------------------------------------------------| 
b|-----------------------------------------------------------------| 
G|--9-9-9--7-7-7--9-9-9--5-5-5--10-10-7--9-9-9--5-5-5--7-7-7-7-7---| 
D|--9-9-9--7-7-7--9-9-9--5-5-5--10-10-7--9-9-9--5-5-5--7-7-7-7-7---| x2
A|--7-7-7--5-5-5--7-7-7--3-3-3--8--8--5--7-7-7--3-3-3--5-5-5-5-5---| 
E|-----------------------------------------------------------------| 
    
[Chorus]
e|---------------------------------------------------------------------------| 
b|---------------------------------------------------------------------------| 
G|--10-10-10-10-10--10-10-10-10-10--9---5----10-10-10-10-10--9---9-------9---| 
D|--10-10-10-10-10--10-10-10-10-10--9-7-5----10-10-10-10-10--9-7-9-------9---| 
A|--8--8--8--8--8---8--8--8--8--8---7-7-3----8--8--8--8--8---7-7-7-------7---| 
E|------------------------------------5------------------------5---0-0-0-----| 
    PM PM PM PM     PM PM PM PM              PM PM PM PM PM

e|---------------------------------------------------------------------------| 
b|---------------------------------------------------------------------------| 
G|--10-10-10-10-10--10-10-10-10-10--9---5----10-10-10-10-10--5-5-5--7-7-7----| 
D|--10-10-10-10-10--10-10-10-10-10--9-7-5----10-10-10-10-10--5-5-5--7-7-7----| 
A|--8--8--8--8--8---8--8--8--8--8---7-7-3----8--8--8--8--8---3-3-3--5-5-5----| 
E|------------------------------------5--------------------------------------| 
    PM PM PM PM     PM PM PM PM              PM PM PM PM PM

[Verse] 
e|------------------------------------------------------------------| 
b|------------------------------------------------------------------| 
G|--9-9-9--7-7-7--9-9-9--5-5-5--10-10-7--9-9-9--5-5-5--7-7-7-7-7----| 
D|--9-9-9--7-7-7--9-9-9--5-5-5--10-10-7--9-9-9--5-5-5--7-7-7-7-7----| x2
A|--7-7-7--5-5-5--7-7-7--3-3-3--8--8--5--7-7-7--3-3-3--5-5-5-5-5----| 
E|------------------------------------------------------------------| 
    PMPMPM PMPMPM PMPMPM PMPMPM PM PM    PMPMPM PMPMPM PMPMPMPMPM

e|-----------------------------------------------------------------| 
b|-----------------------------------------------------------------| 
G|--9-9-9--7-7-7--9-9-9--5-5-5--10-10-7--9-9-9--5-5-5--7-7-7-7-7---| 
D|--9-9-9--7-7-7--9-9-9--5-5-5--10-10-7--9-9-9--5-5-5--7-7-7-7-7---| x2
A|--7-7-7--5-5-5--7-7-7--3-3-3--8--8--5--7-7-7--3-3-3--5-5-5-5-5---| 
E|-----------------------------------------------------------------|

[Chorus]
e|---------------------------------------------------------------------------| 
b|---------------------------------------------------------------------------| 
G|--10-10-10-10-10--10-10-10-10-10--9---5----10-10-10-10-10--9---9-------9---| 
D|--10-10-10-10-10--10-10-10-10-10--9-7-5----10-10-10-10-10--9-7-9-------9---| 
A|--8--8--8--8--8---8--8--8--8--8---7-7-3----8--8--8--8--8---7-7-7-------7---| 
E|------------------------------------5------------------------5---0-0-0-----| 
    PM PM PM PM     PM PM PM PM              PM PM PM PM PM

e|---------------------------------------------------------------------------| 
b|---------------------------------------------------------------------------| 
G|--10-10-10-10-10--10-10-10-10-10--9---5----10-10-10-10-10--5-5-5--7-7-7--9-| 
D|--10-10-10-10-10--10-10-10-10-10--9-7-5----10-10-10-10-10--5-5-5--7-7-7--9-| 
A|--8--8--8--8--8---8--8--8--8--8---7-7-3----8--8--8--8--8---3-3-3--5-5-5--7-| 
E|------------------------------------5--------------------------------------| 
    PM PM PM PM     PM PM PM PM              PM PM PM PM PM

[Break] 
e|-------------|
b|-------------|
G|--7-9--------|
D|--7-9--------| x4
A|--5-7--------|
E|-------------|

e|-------------------------------------------------------| 
b|-------------------------------------------------------| 
G|--7------7--7-5--5-7-7-7--7-10-10-10--9----------------| 
D|--7-7--7-7--7-5--5-7-7-7--7-10-10-10--9----------------| x2
A|--5-7--7-5--5-3--3/5-5-5--5/8--8--8---7----------------| 
E|----5--5-----------------------------------------------| 

[Verse] 
e|------------------------------------------------------------------| 
b|------------------------------------------------------------------| 
G|--9-9-9--7-7-7--9-9-9--5-5-5--10-10-7--9-9-9--5-5-5--7-7-7-7-7----| 
D|--9-9-9--7-7-7--9-9-9--5-5-5--10-10-7--9-9-9--5-5-5--7-7-7-7-7----| x2
A|--7-7-7--5-5-5--7-7-7--3-3-3--8--8--5--7-7-7--3-3-3--5-5-5-5-5----| 
E|------------------------------------------------------------------| 
    PMPMPM PMPMPM PMPMPM PMPMPM PM PM    PMPMPM PMPMPM PMPMPMPMPM

e|-----------------------------------------------------------------| 
b|-----------------------------------------------------------------| 
G|--9-9-9--7-7-7--9-9-9--5-5-5--10-10-7--9-9-9--5-5-5--7-7-7-7-7---| 
D|--9-9-9--7-7-7--9-9-9--5-5-5--10-10-7--9-9-9--5-5-5--7-7-7-7-7---| x2
A|--7-7-7--5-5-5--7-7-7--3-3-3--8--8--5--7-7-7--3-3-3--5-5-5-5-5---| 
E|-----------------------------------------------------------------|

[Outro]
e|---------------------------------------------------------------------------| 
b|---------------------------------------------------------------------------| 
G|--10-10-10-10-10--10-10-10-10-10--9----------------------------------------| 
D|--10-10-10-10-10--10-10-10-10-10--9----------------------------------------| 
A|--8--8--8--8--8---8--8--8--8--8---7----------------------------------------|
E|---------------------------------------------------------------------------| 
    PM PM PM PM     PM PM PM PM

8) Back On Track

[Intro]
e|---------------------------|-----------------------------------------------| 
b|---------------------------|-----------------------------------------------| 
G|--9-x-x-9-x-x-9-x-x-9-x-x--|--9-9-9-10-7--9-9-9-12-10--9-9-9-10-7--9-------| 
D|--9-x-x-9-x-x-9-x-x-9-x-x--|--9-9-9-10-7--9-9-9-12-10--9-9-9-10-7--9-------| 
A|--7-x-x-7-x-x-7-x-x-7-x-x--|--7-7-7-8--5--7-7-7-10-8---7-7-7-8--5--7-------| 
E|---------------------------|-----------------------------------------------| 

[Verse]
e|---------------------------------------------------------------------------| 
b|---------------------------------------------------------------------------| 
G|--9-9-9-10-7--9-9-9-12-10--9-9-9-10-7--9-9-9--7-7-7------------------------| 
D|--9-9-9-10-7--9-9-9-12-10--9-9-9-10-7--9-9-9--7-7-7------------------------| x4
A|--7-7-7-8--5--7-7-7-10-8---7-7-7-8--5--7-7-7--5-5-5------------------------| 
E|---------------------------------------------------------------------------| 

[Bridge]
e|---------------------------------------------------------------------------| 
b|---------------------------------------------------------------------------| 
G|--9-9-9-10-7--9-9-9-12-10--9-9-9-10-7--9-----------------------------------| 
D|--9-9-9-10-7--9-9-9-12-10--9-9-9-10-7--9-----------------------------------| 
A|--7-7-7-8--5--7-7-7-10-8---7-7-7-8--5--7-----------------------------------| 
E|---------------------------------------------------------------------------| 

[Verse]
e|---------------------------------------------------------------------------| 
b|---------------------------------------------------------------------------| 
G|--9-9-9-10-7--9-9-9-12-10--9-9-9-10-7--9-9-9--7-7-7------------------------| 
D|--9-9-9-10-7--9-9-9-12-10--9-9-9-10-7--9-9-9--7-7-7------------------------| x4
A|--7-7-7-8--5--7-7-7-10-8---7-7-7-8--5--7-7-7--5-5-5------------------------| 
E|---------------------------------------------------------------------------|  

[Outro]
e|---------------------------------------------------------------------------| 
b|---------------------------------------------------------------------------| 
G|--9---9---9---9-----9------------------------------------------------------| 
D|--9---9---9---9-----9------------------------------------------------------| 
A|--7---7---7---7-----7------------------------------------------------------| 
E|---------------------------------------------------------------------------|

9) Opportunities

[Intro]

e|---------------------------------------------------------------------------|
b|---------------------------------------------------------------------------|
G|--9-9-9-9-9-9-9-9-9-9-9-9-9-9-9-9-9-9-9-9--9-9-9-9--9-9-9-9----------------|
D|--9-9-9-9-9-9-9-9-9-9-9-9-9-9-9-9-9-9-9-9--9-9-9-9--9-9-9-9----------------|
A|--7-7-7-7-7-7-7-7-7-7-7-7-7-7-7-7-7-7-7-7--7-7-7-7--7-7-7-7----------------|
E|---------------------------------------------------------------------------|
      PMPM  PMPM  PMPM  PMPM  PMPM  PMPM

[Verse]

e|----------------------------------|
b|----------------------------------|
G|--9-9-9--9-5---------5-7----------|
D|--9-9-9--9-5--3-3-3--5-7----------| x3
A|--7-7-7--7-3--3-3-3--3-5----------| 
E|--------------1-1-1---------------|

e|----------------------------------------|
b|----------------------------------------|
G|-----------5-5-5------------------------| 
D|--3-3-3-3--5-5-5------------------------| 
A|--3-3-3-3--3-3-3------------------------| 
E|--1-1-1-1-------------------------------|

e|----------------------------------|
b|----------------------------------|
G|--9-9-9--9-5---------5-7----------|
D|--9-9-9--9-5--3-3-3--5-7----------| x3
A|--7-7-7--7-3--3-3-3--3-5----------| 
E|--------------1-1-1---------------|

e|----------------------------------------|
b|----------------------------------------|
G|-----------5-5-5------------------------| 
D|--3-3-3-3--5-5-5------------------------|
A|--3-3-3-3--3-3-3------------------------| 
E|--1-1-1-1-------------------------------|

[Chorus]

e|---------------------------------------------------------------------------|
b|---------------------------------------------------------------------------|
G|--9-9-9-10-7--12-12-12---9-9-9-10-7----------9-9-9-10-7--12-12-12----------|
D|--9-9-9-10-7--12-12-12---9-9-9-10-7--3-3-5---9-9-9-10-7--12-12-12----------|
A|--7-7-7-8--5--10-10-10---7-7-7-8--5--3-3-5---7-7-7-8--5--10-10-10----------|
E|-------------------------------------1-1-3---------------------------------|
    PMPMPM                 PMPMPM              PMPMPM

e|---------------------------------------------------------------------------|
b|---------------------------------------------------------------------------|
G|--10-10-10-10-10-10-10-10-10-10-10--12-12-12-12-12-12-12-12-12-------------|
D|---------------------------------------------------------------------------|
A|--8--8--8--8--8--8--8--8--8--8--8---10-10-10-10-10-10-10-10-10-------------|
E|---------------------------------------------------------------------------|

[Verse]

e|----------------------------------|
b|----------------------------------|
G|--9-9-9--9-5---------5-7----------|
D|--9-9-9--9-5--3-3-3--5-7----------| x3
A|--7-7-7--7-3--3-3-3--3-5----------| 
E|--------------1-1-1---------------|

e|----------------------------------------|
b|----------------------------------------|
G|-----------5-5-5------------------------| 
D|--3-3-3-3--5-5-5------------------------| 
A|--3-3-3-3--3-3-3------------------------| 
E|--1-1-1-1-------------------------------|

e|----------------------------------|
b|----------------------------------|
G|--9-9-9--9-5---------5-7----------|
D|--9-9-9--9-5--3-3-3--5-7----------| x3
A|--7-7-7--7-3--3-3-3--3-5----------| 
E|--------------1-1-1---------------|

e|----------------------------------------|
b|----------------------------------------|
G|-----------5-5-5------------------------| 
D|--3-3-3-3--5-5-5------------------------|
A|--3-3-3-3--3-3-3------------------------| 
E|--1-1-1-1-------------------------------|

[Chorus]

e|---------------------------------------------------------------------------|
b|---------------------------------------------------------------------------|
G|--9-9-9-10-7--12-12-12---9-9-9-10-7----------9-9-9-10-7--12-12-12----------|
D|--9-9-9-10-7--12-12-12---9-9-9-10-7--3-3-5---9-9-9-10-7--12-12-12----------|
A|--7-7-7-8--5--10-10-10---7-7-7-8--5--3-3-5---7-7-7-8--5--10-10-10----------|
E|-------------------------------------1-1-3---------------------------------|
    PMPMPM                 PMPMPM              PMPMPM

e|---------------------------------------------------------------------------|
b|---------------------------------------------------------------------------|
G|--10-10-10-10-10-10-10-10-10-10-10--12-12-12-12-12-12-12-12-12-------------|
D|---------------------------------------------------------------------------|
A|--8--8--8--8--8--8--8--8--8--8--8---10-10-10-10-10-10-10-10-10-------------|
E|---------------------------------------------------------------------------|

[Outro]

e|---------------------------------------------------------------------------|
b|---------------------------------------------------------------------------|
G|--7-9-7-9--10-9-12-10--7-9-9-7--7-5-5-7------------------------------------|
D|--7-9-7-9--10-9-12-10--7-9-9-7--7-5-5-7------------------------------------| x4
A|--5/7-5/7--8-/7-10/8---5/7-7/5--5/3-3/5------------------------------------|
E|---------------------------------------------------------------------------|

e|---------------------------------------------------------------------------|
b|---------------------------------------------------------------------------|
G|--10-10-10-10-10-10-10-10-10-10-10--12-12-12-12-12-12-12-12-12----9--------|
D|------------------------------------------------------------------9--------|
A|--8--8--8--8--8--8--8--8--8--8--8---10-10-10-10-10-10-10-10-10----7--------|
E|---------------------------------------------------------------------------|

10) Back It Up

[Intro]

e|--------------------------------------------------------------------| 
B|--------------------------------------------------------------------| 
G|--------------------------------------------------------------------| 
D|--9-----/12 ---9-----/12 ---9-----/12 ---9-----/12 -----------------| 
A|--9-----/12 ---9-----/12 ---9-----/12 ---9-----/12 -----------------| 
E|--7-----/10 ---7-----/10 ---7-----/10 ---7-----/10 -----------------| 

[Verse] 

e|--------------------------------------------------------------------| 
B|--------------------------------------------------------------------| 
G|--------------------------------------------------------------------| 
D|-------------7-5---------------7----------------7-5---------------7-| x3
A|-9-9-9-9-9-9-5-3--7-7-7-7-7--5-5----9-9-9-9-9-9-5-3--7-7-7-7-7--5-5-| 
E|-7-7-7-7-7-7------5-5-5-5-5--3------7-7-7-7-7-7------5-5-5-5-5--3---| 

[Chorus]

e|--------------------------------------------------------------------| 
B|--------------------------------------------------------------------| 
G|--------------------------------------------------------------------| 
D|--9-9-9 ----------9-9-9 ----------9-9-9 ----------7---5-------------| x2
A|--9-9-9 ----------9-9-9 ----------9-9-9 ----------5---3---5---7-----| 
E|--7-7-7 ----------7-7-7 ----------7-7-7 ------------------3---5-----| 
 
e|--------------------------------------------------------------------| 
B|--------------------------------------------------------------------| 
G|--------------------------------------------------------------------| 
D|--9-9-9-9-9-9-9-9-9-9-9-9-9-9-9-9-9---7---5-------------------------| x2
A|--9-9-9-9-9-9-9-9-9-9-9-9-9-9-9-9-9---5---3---5---7-----------------| 
E|--7-7-7-7-7-7-7-7-7-7-7-7-7-7-7-7-7-----------3---5-----------------| 

[Verse] 

e|--------------------------------------------------------------------| 
B|--------------------------------------------------------------------| 
G|--------------------------------------------------------------------| 
D|-------------7-5---------------7----------------7-5---------------7-| x3
A|-9-9-9-9-9-9-5-3--7-7-7-7-7--5-5----9-9-9-9-9-9-5-3--7-7-7-7-7--5-5-| 
E|-7-7-7-7-7-7------5-5-5-5-5--3------7-7-7-7-7-7------5-5-5-5-5--3---| 

[Chorus]

e|--------------------------------------------------------------------| 
B|--------------------------------------------------------------------| 
G|--------------------------------------------------------------------| 
D|--9-9-9 ----------9-9-9 ----------9-9-9 ----------7---5-------------| x2
A|--9-9-9 ----------9-9-9 ----------9-9-9 ----------5---3---5---7-----| 
E|--7-7-7 ----------7-7-7 ----------7-7-7 ------------------3---5-----| 
 
e|--------------------------------------------------------------------| 
B|--------------------------------------------------------------------| 
G|--------------------------------------------------------------------| 
D|--9-9-9-9-9-9-9-9-9-9-9-9-9-9-9-9-9---7---5-------------------------| x2
A|--9-9-9-9-9-9-9-9-9-9-9-9-9-9-9-9-9---5---3---5---7-----------------| 
E|--7-7-7-7-7-7-7-7-7-7-7-7-7-7-7-7-7-----------3---5-----------------| 

[Break.1]

e|-------------------------------------------|------------------------| 
B|-------------------------------------------|------------------------| 
G|-------------------------------------------|------------------------| 
D|-9-9-9 ------9-9-9 ------9-9-9 ------9-9-9 |--9----/12 --9----/12 --| 
A|-9-9-9 ------9-9-9 ------9-9-9 ------9-9-9 |--9----/12 --9----/12 --|
E|-7-7-7 ------7-7-7 ------7-7-7 ------7-7-7 |--7----/10 --7----/10 --| 

[Break.2]

e|--------------------------------------------------------------------| 
B|--------------------------------------------------------------------| 
G|--------------------------------------------------------------------| 
D|-----------7-\5----------------5--------------7-\5----------------5-| x3
A|--9-9-9-9--5-\3--5-5-5-5--7-7--3-----9-9-9-9--5-\3--5-5-5-5--7-7--3-| 
E|--7-7-7-7--------3-3-3-3--5-5--------7-7-7-7--------3-3-3-3--5-5----| 
      PMPMPM         PMPMPM              PMPMPM         PMPMPM

e|-----------------------------------| 
B|-----------------------------------| 
G|-----------------------------------| 
D|-----------7-\5----------------5---|
A|--9-9-9-9--5-\3--5-5-5-5--7-7--3---| 
E|--7-7-7-7--------3-3-3-3--5-5------| 
      PMPMPM         PMPMPM              

[Outro]

e|---------------------------------------------------| 
B|---------------------------------------------------| 
G|---------------------------------------------------| 
D|-------------7-5---------------7------7-5--------7-|
A|-9-9-9-9-9-9-5-3--7-7-7-7-7--5-5----9-5-3--7---5-5-| 
E|-7-7-7-7-7-7------5-5-5-5-5--3------7------5---3---| 

11) False Convictions

[Intro]
 
e|---------------------------------------------------------------------------| 
b|---------------------------------------------------------------------------| 
G|------------------9--9-9-9-9--10-10-10-10--12-12-12--10-10-10-10-----------| 
D|--2---------------9--X-X-X-X---X--X--X--X---X--X--X--10-10-10-10-----------| 
A|--2---------------7--7-7-7-7---8--8--8--8--10-10-10--8--8--8--8------------| 
E|--0--PICKSLIDE-------------------------------------------------------------| 

[Verse] 

e|---------------------------------------------------------------------------| 
B|---------------------------------------------------------------------------|
G|--9-9-9--5-7--10-10-10--5-7---9-9-9--5-7--10-10-10-10-10-------------------| 
D|--9-9-9--5-7--10-10-10--5-7---9-9-9--5-7--10-10-10-10-10-------------------| x4 
A|--7-7-7--3-5--8--8--8---3-5---7-7-7--3-5--8--8--8--8--8--------------------| 
E|---------------------------------------------------------------------------| 

[Bridge]

e|---------------------------------------------------------------------------| 
b|---------------------------------------------------------------------------| 
G|------------------9--9-9-9-9--10-10-10-10--12-12-12--10-10-10-10-----------| 
D|--2---------------9--X-X-X-X---X--X--X--X---X--X--X--10-10-10-10-----------| 
A|--2---------------7--7-7-7-7---8--8--8--8--10-10-10--8--8--8--8------------| 
E|--0--PICKSLIDE-------------------------------------------------------------| 

[Chorus] 

e|---------------------------------------------------------------------------| 
b|---------------------------------------------------------------------------| 
G|-------------------9--9--5-5-5--7-7-7--------------------------------------| 
D|--2-2-2-2-2-2-2-2--9--9--5-5-5--7-7-7--------------------------------------| x4
A|--2-2-2-2-2-2-2-2--7--7--3-3-3--5-5-5--------------------------------------| 
E|--0-0-0-0-0-0-0-0----------------------------------------------------------| 
      PMPMPMPMPMPMPM       PMPM   PMPM

[Bridge]

e|---------------------------------------------------------------------------| 
b|---------------------------------------------------------------------------| 
G|------------------9--9-9-9-9--10-10-10-10--12-12-12--10-10-10-10-----------| 
D|--2---------------9--X-X-X-X---X--X--X--X---X--X--X--10-10-10-10-----------| 
A|--2---------------7--7-7-7-7---8--8--8--8--10-10-10--8--8--8--8------------| 
E|--0--PICKSLIDE-------------------------------------------------------------| 

[Verse] 

e|---------------------------------------------------------------------------| 
B|---------------------------------------------------------------------------|
G|--9-9-9--5-7--10-10-10--5-7---9-9-9--5-7--10-10-10-10-10-------------------| 
D|--9-9-9--5-7--10-10-10--5-7---9-9-9--5-7--10-10-10-10-10-------------------| x4 
A|--7-7-7--3-5--8--8--8---3-5---7-7-7--3-5--8--8--8--8--8--------------------| 
E|---------------------------------------------------------------------------| 

[Bridge]

e|---------------------------------------------------------------------------| 
b|---------------------------------------------------------------------------| 
G|------------------9--9-9-9-9--10-10-10-10--12-12-12--10-10-10-10-----------| 
D|--2---------------9--X-X-X-X---X--X--X--X---X--X--X--10-10-10-10-----------| 
A|--2---------------7--7-7-7-7---8--8--8--8--10-10-10--8--8--8--8------------| 
E|--0--PICKSLIDE-------------------------------------------------------------| 

[Outro]

e|---------------------------------------------------------------------------| 
b|---------------------------------------------------------------------------| 
G|----*-*-*-*-*-*-*--9--9----------------------------------------------------| 
D|--2-2-2-2-2-2-2-2--9--9----------------------------------------------------| 
A|--2-2-2-2-2-2-2-2--7--7----------------------------------------------------| 
E|--0-0-0-0-0-0-0-0----------------------------------------------------------|
      PMPMPMPMPMPMPM

12) Frame Of Mind 

[Intro]

e|---------------------------------------------------------------------------| 
b|---------------------------------------------------------------------------|
G|--9---5--7-7-7--5-5-5--7-5---9---12--11-11-11-11--7-7-7-7------------------| 
D|--9-2-5--7-7-7--5-5-5--7-5---9-2-12--11-11-11-11--7-7-7-7------------------| 
A|--7-2-3--5-5-5--3-3-3--5-3---7-2-10--9--9--9--9---5-5-5-5------------------| 
E|----0--------------------------0-------------------------------------------| 
           PMPMPM PMPMPM PMPM

e|---------------------------------------------------------------------------| 
b|---------------------------------------------------------------------------| 
G|--9-9-9-9-10-9-9-9-9-9-10-9-9-9-9-9-10--5-5-5-5--7-7-7--7-5----------------| 
D|--9-9-9-9-10-9-9-9-9-9-10-9-9-9-9-9-10--5-5-5-5--7-7-7--7-5----------------| 
A|--7-7-7-7/8--7-7-7-7-7/8--7-7-7-7-7/8---3-3-3-3--5-5-5--5/3----------------| 
E|---------------------------------------------------------------------------|

e|---------------------------------------------------------------------------| 
b|---------------------------------------------------------------------------| 
G|--9-9-9-9-10-9-9-9-9-9-10-9-9-9-9-9-10---12-12-12-12-12-12--9--------------| 
D|--9-9-9-9-10-9-9-9-9-9-10-9-9-9-9-9-10---12-12-12-12-12-12--9--------------| 
A|--7-7-7-7/8--7-7-7-7-7/8--7-7-7-7-7/8----10-10-10-10-10-10--7--------------| 
E|---------------------------------------------------------------------------| 

[Verse]

e|---------------------------------------------------------------------------| 
b|---------------------------------------------------------------------------| 
G|--9-9-9-9-7-10--9-9-9-9--5-5-5--7-7-7--9-9-9-9-9-9-9-----------------------| 
D|--9-9-9-9-7-10--9-9-9-9--5-5-5--7-7-7--9-9-9-9-9-9-9-----------------------| 
A|--7-7-7-7-5/8---7-7-7-7--3-3-3--5-5-5--7-7-7-7-7-7-7-----------------------| 
E|---------------------------------------------------------------------------| 
                                             
e|---------------------------------------------------------------------------| 
b|---------------------------------------------------------------------------| 
G|--9-9-9-9-7-10--9-9-9-9--12-12-12-12-12-12--11-11-11-----------------------| 
D|--9-9-9-9-7-10--9-9-9-9--12-12-12-12-12-12--11-11-11-----------------------| 
A|--7-7-7-7-5/8---7-7-7-7--10-10-10-10-10-10--9--9--9------------------------| 
E|---------------------------------------------------------------------------| 

e|---------------------------------------------------------------------------| 
b|---------------------------------------------------------------------------| 
G|--9-9-9-9-7-10--9-9-9-9--5-5-5--7-7-7--9-9-9-9-9-9-9-----------------------| 
D|--9-9-9-9-7-10--9-9-9-9--5-5-5--7-7-7--9-9-9-9-9-9-9-----------------------| 
A|--7-7-7-7-5/8---7-7-7-7--3-3-3--5-5-5--7-7-7-7-7-7-7-----------------------| 
E|---------------------------------------------------------------------------| 
                                             PMPMPMPMPM

e|---------------------------------------------------------------------------| 
b|---------------------------------------------------------------------------| 
G|--9-9-9-9-7-10--9-9-9-9--12-12-12-12-12-12--11-11-11-----------------------| 
D|--9-9-9-9-7-10--9-9-9-9--12-12-12-12-12-12--11-11-11-----------------------| 
A|--7-7-7-7-5/8---7-7-7-7--10-10-10-10-10-10--9--9--9------------------------| 
E|---------------------------------------------------------------------------| 

e|---------------------------------------------------------------------------| 
b|---------------------------------------------------------------------------| 
G|--9-9-9-9-7-10--9-9-9-9--5-5-5--7-7-7--9-9-9-9-9-9-9-----------------------| 
D|--9-9-9-9-7-10--9-9-9-9--5-5-5--7-7-7--9-9-9-9-9-9-9-----------------------| 
A|--7-7-7-7-5/8---7-7-7-7--3-3-3--5-5-5--7-7-7-7-7-7-7-----------------------| 
E|---------------------------------------------------------------------------| 
                                             PMPMPMPMPM

e|---------------------------------------------------------------------------| 
b|---------------------------------------------------------------------------| 
G|--9-9-9-9-7-10--9-9-9-9--12-12-12-12-12-12--11-11-11-----------------------| 
D|--9-9-9-9-7-10--9-9-9-9--12-12-12-12-12-12--11-11-11-----------------------| 
A|--7-7-7-7-5/8---7-7-7-7--10-10-10-10-10-10--9--9--9------------------------| 
E|---------------------------------------------------------------------------| 

[Chorus] 

e|---------------------------------------------------------------------------| 
b|---------------------------------------------------------------------------| 
G|--7-7-7-7-7-7-----------------------7-7-7-7-7-7-------9-9-9-9-9-9----------| 
D|--7-7-7-7-7-7--5-4--2-2-2-2-2-2-2---7-7-7-7-7-7--5-4--9-9-9-9-9-9----------| x2
A|--5-5-5-5-5-5--5-4--2-2-2-2-2-2-2---5-5-5-5-5-5--5-4--7-7-7-7-7-7----------| 
E|---------------3-2--0-0-0-0-0-0-0----------------3-2-----------------------| 
                      PMPMPMPMPMPMPM

[Verse]

e|---------------------------------------------------------------------------| 
b|---------------------------------------------------------------------------| 
G|--9-9-9-9-7-10--9-9-9-9--5-5-5--7-7-7--9-9-9-9-9-9-9-----------------------| 
D|--9-9-9-9-7-10--9-9-9-9--5-5-5--7-7-7--9-9-9-9-9-9-9-----------------------| 
A|--7-7-7-7-5/8---7-7-7-7--3-3-3--5-5-5--7-7-7-7-7-7-7-----------------------| 
E|---------------------------------------------------------------------------| 
                                             PMPMPMPMPM

e|---------------------------------------------------------------------------| 
b|---------------------------------------------------------------------------| 
G|--9-9-9-9-7-10--9-9-9-9--12-12-12-12-12-12--11-11-11-----------------------| 
D|--9-9-9-9-7-10--9-9-9-9--12-12-12-12-12-12--11-11-11-----------------------| 
A|--7-7-7-7-5/8---7-7-7-7--10-10-10-10-10-10--9--9--9------------------------| 
E|---------------------------------------------------------------------------| 

e|---------------------------------------------------------------------------| 
b|---------------------------------------------------------------------------| 
G|--9-9-9-9-7-10--9-9-9-9--5-5-5--7-7-7--9-9-9-9-9-9-9-----------------------| 
D|--9-9-9-9-7-10--9-9-9-9--5-5-5--7-7-7--9-9-9-9-9-9-9-----------------------| 
A|--7-7-7-7-5/8---7-7-7-7--3-3-3--5-5-5--7-7-7-7-7-7-7-----------------------| 
E|---------------------------------------------------------------------------| 
                                             PMPMPMPMPM

e|---------------------------------------------------------------------------| 
b|---------------------------------------------------------------------------| 
G|--9-9-9-9-7-10--9-9-9-9--12-12-12-12-12-12--11-11-11-----------------------| 
D|--9-9-9-9-7-10--9-9-9-9--12-12-12-12-12-12--11-11-11-----------------------| 
A|--7-7-7-7-5/8---7-7-7-7--10-10-10-10-10-10--9--9--9------------------------| 
E|---------------------------------------------------------------------------|

[Chorus] 

e|---------------------------------------------------------------------------| 
b|---------------------------------------------------------------------------| 
G|--7-7-7-7-7-7-----------------------7-7-7-7-7-7-------9-9-9-9-9-9----------| 
D|--7-7-7-7-7-7--5-4--2-2-2-2-2-2-2---7-7-7-7-7-7--5-4--9-9-9-9-9-9----------| x2
A|--5-5-5-5-5-5--5-4--2-2-2-2-2-2-2---5-5-5-5-5-5--5-4--7-7-7-7-7-7----------| 
E|---------------3-2--0-0-0-0-0-0-0----------------3-2-----------------------| 
                      PMPMPMPMPMPMPM

[Outro] 

e|---------------------------------------------------------------------------| 
b|---------------------------------------------------------------------------| 
G|--9-9-9-9-9-9-9-9-9-9-------9----------------------------------------------| 
D|--9-9-9-9-9-9-9-9-9-9--2-2--9----------------------------------------------| 
A|--7-7-7-7-7-7-7-7-7-7--2-2--7----------------------------------------------|
E|-----------------------0-0-------------------------------------------------| 
                         PMPM

13) Our Time 

[Intro]

e|----------------------|
b|----------------------|
G|--9-7-9--------9-7-9--|
D|--9-7-9--2--2--9-7-9--|
A|--7/5/7--2--2--7/5/7--|
E|---------0--0---------|

[Verse]

e|----------------------------------------------------|
b|----------------------------------------------------|
G|--------------------9-7-9--------------------5-7-5--|
D|--2-2-2-2-2--5-5-5--9-7-9--2-2-2-2-2--5-5-5--5-7-5--| x2
A|--2-2-2-2-2--5-5-5--7/5/7--2-2-2-2-2--5-5-5--3-5-3--|
E|--0-0-0-0-0--3-3-3---------0-0-0-0-0--3-3-3---------|

[Chorus]

e|--------------------------------------|--------------------------------------|----------|
b|--------------------------------------|--------------------------------------|----------|
G|--7-7-7-7--5-5-5-5--7-7-7-7--5-5-5-5--|--7-7-7-7--5-5-5-5--7-7-7-7--5-5-5-5--|--9-7-9---|
D|--7-7-7-7--5-5-5-5--7-7-7-7--5-5-5-5--|--7-7-7-7--5-5-5-5--7-7-7-7--5-5-5-5--|--9-7-9---|
A|--5-5-5-5--3-3-3-3--5-5-5-5--3-3-3-3--|--5-5-5-5--3-3-3-3--5-5-5-5--3-3-3-3--|--7/5/7---|
E|--------------------------------------|--------------------------------------|----------|
                               PMPMPMPM 

[Verse]

e|----------------------------------------------------|
b|----------------------------------------------------|
G|--------------------9-7-9--------------------5-7-5--|
D|--2-2-2-2-2--5-5-5--9-7-9--2-2-2-2-2--5-5-5--5-7-5--| x2
A|--2-2-2-2-2--5-5-5--7/5/7--2-2-2-2-2--5-5-5--3-5-3--|
E|--0-0-0-0-0--3-3-3---------0-0-0-0-0--3-3-3---------|

[Chorus]

e|--------------------------------------|--------------------------------------|----------|
b|--------------------------------------|--------------------------------------|----------|
G|--7-7-7-7--5-5-5-5--7-7-7-7--5-5-5-5--|--7-7-7-7--5-5-5-5--7-7-7-7--5-5-5-5--|--9-7-9---|
D|--7-7-7-7--5-5-5-5--7-7-7-7--5-5-5-5--|--7-7-7-7--5-5-5-5--7-7-7-7--5-5-5-5--|--9-7-9---|
A|--5-5-5-5--3-3-3-3--5-5-5-5--3-3-3-3--|--5-5-5-5--3-3-3-3--5-5-5-5--3-3-3-3--|--7/5/7---|
E|--------------------------------------|--------------------------------------|----------|
                               PMPMPMPM

[Bridge]

e|----------------|
b|----------------|
G|----9-7-9-------|
D|--2-9-7-9-------| x4
A|--2-7/5/7-------|
E|--0-------------|

[Break]

e|----------------------------------------------------------|
b|----------------------------------------------------------|
G|---------4-4-4--7-7-7--9-7-9----------9-7-9--4-4-4--7-7-7-|
D|--2-2-2--4-4-4--7-7-7--9-7-9---2-2-2--9-7-9--4-4-4--7-7-7-| x3
A|--2-2-2--2-2-2--5-5-5--7/5/7---2-2-2--7/5/7--2-2-2--5-5-5-|
E|--0-0-0------------------------0-0-0----------------------|
    PMPM   PMPM   PMPM           PMPM          PMPM   PMPM

[Outro]

e|--------------------------------|
b|--------------------------------|
G|-------------------9-7-9--------|
D|--2-2-2-2-2-2-2-2--9-7-9--------| x4
A|--2-2-2-2-2-2-2-2--7/5/7--------|
E|--0-0-0-0-0-0-0-0---------------|
    PMPMPMPMPMPMPMPM

14) Stronger Than Before

[Intro] 

e|----------------------------------|
b|----------------------------------|
G|--7-7-7--5-5-5--10-10-10----5--7--|
D|--7-7-7--5-5-5--10-10-10--7-5--7--| x2
A|--5-5-5--3-3-3--8--8--8---7-3--5--|
E|--------------------------5-------|

[Verse]

e|----------------------------------------|
b|----------------------------------------|
G|--7-7-7--5-5-5--10-10-10----5-----------|
D|--7-7-7--5-5-5--10-10-10--7-5-----------| x4
A|--5-5-5--3-3-3--8--8--8---7-3-----------|
E|--------------------------5-------------|

[Chorus]                                                            
                                                            
e|--------------------------|----------------------------------|----------------------------------|   
b|--------------------------|----------------------------------|----------------------------------|   
G|--9-9-9-9-9--12-12-12-12--|--7-7-7--10-10--7-7-7----5--------|--7-7-7--10-10--7-7-7----5--------|
D|--------------------------|--7-7-7--10-10--7-7-7--7-5--------|--7-7-7--10-10--7-7-7--7-5--------| x2
A|--7-7-7-7-7--10-10-10-10--|--5-5-5--8--8---5-5-5--7-3--------|--5-5-5--8--8---5-5-5--7-3--------| 
E|--------------------------|-----------------------5----------|-----------------------5----------|  
                               PMPMPM        PMPMPM               PMPMPM        PMPMPM
[Bridge]

e|---------|
b|---------| 
G|-7---5-7-|
D|-7-5-5-7-|
A|-5-5-3-5-|
E|---3-----|

[Verse]

e|----------------------------------------|
b|----------------------------------------|
G|--7-7-7--5-5-5--10-10-10----5-----------|
D|--7-7-7--5-5-5--10-10-10--7-5-----------| x4
A|--5-5-5--3-3-3--8--8--8---7-3-----------|
E|--------------------------5-------------|

[Chorus]
                                                            
e|--------------------------|----------------------------------|----------------------------------|   
b|--------------------------|----------------------------------|----------------------------------|   
G|--9-9-9-9-9--12-12-12-12--|--7-7-7--10-10--7-7-7----5--------|--7-7-7--10-10--7-7-7----5--------|
D|--------------------------|--7-7-7--10-10--7-7-7--7-5--------|--7-7-7--10-10--7-7-7--7-5--------| x2
A|--7-7-7-7-7--10-10-10-10--|--5-5-5--8--8---5-5-5--7-3--------|--5-5-5--8--8---5-5-5--7-3--------| 
E|--------------------------|-----------------------5----------|-----------------------5----------|  
                               PMPMPM        PMPMPM               PMPMPM        PMPMPM
[Break]

e|---------------|
b|---------------|
G|--7----5-------|
D|--7--7-5-------| x4
A|--5--7-3-------|
E|-----5---------|

e|------------------------------------------------|
b|------------------------------------------------|
G|--7-7-7-7--10-10-10--9-9-9--5-5-5--7-7-7-7----5-|
D|--7-7-7-7--10-10-10--9-9-9--5-5-5--7-7-7-7--7-5-| x4 (Palm mute first two times)
A|--5-5-5-5--8--8--8---7-7-7--3-3-3--5-5-5-5--7-3-|
E|--------------------------------------------5---|

e|----------|
b|----------|
G|--7----5--|
D|--7--5-5--| x2
A|--5--5-3--|
E|-----3----|

[Outro]

e|----------------------------------------|
b|----------------------------------------|
G|--7-7-7--5-5-5--10-10-10----5-----------|
D|--7-7-7--5-5-5--10-10-10--7-5-----------| x4
A|--5-5-5--3-3-3--8--8--8---7-3-----------|
E|--------------------------5-------------|

e|----------------------------------|
b|----------------------------------|
G|--7--7-7--7-----------------------|
D|--7--7-7--7-----------------------|
A|--5--5-5--5-----------------------|
E|----------------------------------|

***********************************

| PM  Palm muting
| /   Slide Up
| \   Slide-down
| x  Dead note

***********************************

            
            
Suggest correction
Creating personal tab
Creating personal tab
You can edit any tab online and save it as your Personal.

You can edit, replace or remove any tab part or add personal notes – all changes will be seen only by you.

Personal tabs can be accessed anytime from any device, even offline.
Learn more »
Give kudos to tab author, rate the tab!
1 2 3 4 5
comments
print report bad tab
guest
You may want to rate the tab now too:
select rating
Wanna post a correction for this tab? Suggest correction