Oops, an error
Loading. Please wait.

Id Love To Change The World tab

version 1
version 1

Whole song

Interactive

262,666 views 501 this week
26 commentsread comments
1 2 3 4 5
x 143
add to favorites
×
Save as Personal and add changes to this tab that will be seen only by you. Learn more ›
×
You can save this tab as Personal to edit and correct it or add notes. All changes will be seen only by you. Learn more »
launch autoscroll
font size
0
reset
how to read this tab
guitar tuner
backing track
0:00
0:00
edit
Autoscroll
slow
fast
+/-
esc
set tempo
stop
Ten Years After
I'd Love To Change The World

Tuning: Standard

   Em            G                 Am            C         B7
E|-----------------------3-------------------------------------------|
B|---------------------------0-----------1-------------1---------0---|
G|-------0-------------0---0-----------2-------------0---0-----2-----|
D|-----2-------------0---------------2-------------2---------1-------|
A|---2-------------2---------------0-------0-1-2-3---------2---------|
E|-0-------0-1-2-3-------------3-------------------------------------|

   Em            G                 Am            C         B7
E|-----------------------3-------------------------------------------|
B|---------------------------0-----------1-------------1---------0---|
G|-------0-------------0---0-----------2-------------0---0-----2-----|
D|-----2-------------0---------------2-------------2---------1-------|
A|---2-------------2---------------0-------0-1-2-3---------2---------|
E|-0-------0-1-2-3-------------3-------------------------------------|

   Em           G             Am            C          B7
E|-0--0--0------3--3--3-------0--0--0------------------2--2--2------|
B|-0--0--0------0--0--0-------1--1--1-------1--1--1----0--0--0------|
G|-0--0--0------0--0--0-------2--2--2-------0--0--0----2--2--2------|
D|-2--2--2------0--0--0-------2--2--2-------2--2--2----1--1--1------|
A|-2--2--2------2--2--2-------0--0--0-------3--3--3----2--2--2------|
E|-0--0--0------3--3--3-------0--0--0-------------------------------|



Alternate Chords to use
   Em          G           Am          C             B7
E|------------------------------------------------------------------|
B|-0--0--0-----3--3--3-----5--5--5-----8---8---8-----7--7--7--------|
G|-0--0--0-----4--4--4-----5--5--5-----9---9---9-----8--8--8--------|
D|-2--2--2-----5--5--5-----7--7--7-----10--10--10----7--7--7--------|
A|-2--2--2-----5--5--5-----7--7--7-----10--10--10----9--9--9--------|
E|-0--0--0-----3--3--3-----5--5--5-----8---8---8-----7--7--7--------|



Strumming Pattern - Down, Down, Up


This tab is just a mix of what I've seen on this song so far and what I think sounds good
It's pretty accurate and either strumming pattern will work. Enjoy

            
            
Suggest correction
Creating personal tab
Creating personal tab
You can edit any tab online and save it as your Personal.

You can edit, replace or remove any tab part or add personal notes – all changes will be seen only by you.

Personal tabs can be accessed anytime from any device, even offline.
Learn more »
comments
print report bad tab
26 comments total. Showing first comments. show 1 bad comment
+4 reply
oraclez69 10 Sep 06, 2005 08:00 PM

The last chord in my mind it sounds like a b major, not b7. Anyone else hearing this??

+2 reply
buddyhimself 41 Jan 03, 2006 04:28 AM

yes, the last chord is a b major, well all the chords are right, but all (not Em) of the chords need to be 5ths, and the b7 needs to be a b5.

guest
You may want to rate the tab now too:
select rating
Wanna post a correction for this tab? Suggest correction