Oops, an error
Loading. Please wait.
We have an official Metal tab made by UG professional guitarists. Check out the tab »
×
5,172 views 1 this week
4 commentsread comments
1 2 3 4 5
x 8
add to favorites
guitar tuner
Autoscroll
slow
fast
+/-
esc
set tempo
stop
"Metal"
demo version
Play now

or get full version for Free

×
Get full version now!
Learn and play this song
in Tab Pro
Try for free

or get $10 off Welcome Bonus

Get welcome bonus
Get access to Tab Pro version of “Metal”!
Tab Pro is a premium guitar tab service, available on PC, Mac, iOS and Android
TRY FOR FREE
To download “Metal” Power tab click button below
Please note that you must have Power Tab software installed on your
computer in order to view this file.
Suggest correction
comments
report bad tab
4 comments total. Showing first comments.
+2 reply
Metallica_Man55 392 Jul 17, 2008 08:46 AM

Pretty good, easy to follow. The only thing I would have changed is the parts in the verse and the prechorus part from notes to full chords, like instead of
E------------------
B------------------
G------------------
D------------------
A------------------
E--0-0-0-3-0-0-----

I would have made it like this
E------------------
B------------------
G------------------
D--2-2-2---2-2-----
A--2-2-2---2-2-----
E--0-0-0-3-0-0-----

and instead of
E------------------
B------------------
G------------------
D------------------
A-------3----------
E----1-------------

in the verse, I'd play it like this
E------------------
B------------------
G------------------
D------------------
A----3--3----------
E----1--1----------

Just suggestions, though.

+2 reply
foofighters4eva 10 May 10, 2009 11:21 AM

wouldnt it be easier just to play it in drop d?, rather than trying to change tunings part way through the song?, the start can just be moved up 2 frets on the e string and it no harger to play.

0 reply
NejiHyuga900 864 Sep 03, 2009 05:56 PM

Yeah. I think I kind of agree with you foofighters4eva.

BTW Metallica_Man55, I don't think chords are necessary because the guitar is just heavy.

guest
You may want to rate the tab now too:
select rating