Oops, an error
Loading. Please wait.

7Th Heaven tab

4,389 views 1 this week
2 commentsread comments
1 2 3 4 5
x 3
add to favorites
×
Save as Personal and add changes to this tab that will be seen only by you. Learn more ›
×
You can save this tab as Personal to edit and correct it or add notes. All changes will be seen only by you. Learn more »
launch autoscroll
font size
0
reset
how to read this tab
guitar tuner
edit
Autoscroll
slow
fast
+/-
esc
set tempo
stop
Author
My names Aaron Gossett, you can reach me here if you have any questions about the tab,

http://profile.myspace.com/index.cfm?fuseaction=user.viewprofile&friendid=39918570

if there are any mistakes feel free to tell so i can change them, and keep in mind that 
7th heaven not melody 6, so there are a few differences


your welcome.


GUITAR 1 nick

x-----------------------------------------------------------------x---|
x-----------------------------12----------------------------------x---|
x--------------------------13-13--------------------13-13---------x---|  2x
x--------------------------11-11--------------------14-11---------x---|
x--7-------------7/11---11-11-----7-----------7/11--12-11---------x---|
x-----7--7h9---------------------------7--7h9---------------------x---|

x--------------------------------------------------------------x--|
x----------------------12-12---------------------12-12---------x--|
x--------9h11p9--------13-13----------9h11p9-----13-13---------x--| 2x
x--6h7-------------11--14-14----6h7----------11--14-14---------x--|
x----------------------12-12---------------------12-12---------x--|
x--------------------------------------------------------------x--|


	  GUITAR 2 JEFF
x--------------------------------------------------------------x---|
x-------------------9---9--------------------9--9--------------x---|
x--9----------------9---9---9----------------9--9--------------x---|
x-----9-9h11p9------9---9------9-9h11p9------9--9--------------x---|  2x
x----------------11-11-11----------------11-11-11--------------x---|
x--------------------------------------------------------------x---|


x---------------------------------------------------------------x-|
x---------------------------------------------------------------x-|
x----------------------13-13---------------------13--13---------x-|
x---7)))))-------------14-14---------7)))))------14--14---------x-|
x---7)))))-------------11-11---------7)))))------11--11---------x-|
x---5)))))---------------------------5)))))---------------------x-|

x-----------------------------------------------------------------------------x-|
x-----------------------------------------------------------------------------x-|
x---13------------------------------------------------------------------------x-|
x---14------------------------------------------------------------------------x-|
x---11------------------------------------------------------------------------x-|
x-----------------------------------------------------------------------------x-|

	GUITAR 1 NICK

x-----------------------------------------------------------------------------------x-|
x-----------------------------------------------------------------------------------x-|
x---13--13--13-13-13-13--13-13------------------------------------------------------x-|
x---14--14--14-14-14-14--14-14------------------------------------------------------x-|
x---12--12--12-12-12-12--12-12------------------------------------------------------x-|
x-----------------------------------------------------------------------------------x-|


x----------------------------------------------------------------------------------x-|
x----------------------------------------------------------------------------------x-|
x--9-9-9--8-8-8---13-13-13--14-14-14-14-14-----------------------------------------x-|
x--9-9-9--9-9-9---14-14-14--14-14-14-14-14-----------------------------------------x-|
x--7-7-7--7-7-7---12-12-12--12-12-12-12-12-----------------------------------------x-|
x----------------------------------------------------------------------------------x-|


	GUITAR 2 JEFF
x--------------------------------------------------------------------------x-|
x--------------------------------------------------------------------------x-|
x--------------------------------------------------------------------------x-|
x--------------------------------------------------------------------------x-|
x-11-14-18-11-14-18-11-14-18-11-14-18-11-14-19-11-14-19 11-14-19-11-14-19--x-|
x--------------------------------------------------------------------------x-|
x--------------------------------------------------------------------------x-|

x-------------------------------------------------------------------x-|
x-------------------------------------------------------------------x-|
x-------------------------------------------------------------------x-|
x--14p11/9h11p9--------14---11/9h11p9-------------------------------x-|
x--------------11--------------------11-----------------------------x-|
x-------------------------------------------------------------------x-|

x-------------------------------------------------------------------x-|
x-------------------------------------------------------------------x-|
x----11-11-11--13-13-13--13p11h13-----------------------------------x-|
x-------------------------------------------------------------------x-|
x-------------------------------------------------------------------x-|
x-------------------------------------------------------------------x-|


GUITAR 1 NICK

x-----------------------------------------------------x-|
x-----------------------------------------------------x-|
x---13)))---------------------------------------------x-|
x---14)))------9--------------------------------------x-|
x---12))))-9h11----11/0-------------------------------x-|
x------------------11/0-------------------------------x-|


  GUITAR 1 nick

x-----------------------------------------------------------------x---|
x-----------------------------12----------------------------------x---|
x--------------------------13-13--------------------13-13---------x---|  2x
x--------------------------11-11--------------------14-11---------x---|
x--7-------------7/11---11-11-----7-----------7/11--12-11---------x---|
x-----7--7h9---------------------------7--7h9---------------------x---|

x--------------------------------------------------------------x--|
x----------------------12-12---------------------12-12---------x--|
x--------9h11p9--------13-13-----------9h11p9----13-13---------x--| 2x
x--6h7-------------11--14-14-9/11---6h7------11--14-14---------x--|
x----------------------12-12-9/11----------------12-12---------x--|
x----------------------------7/9-------------------------------x--|


	  GUITAR 2 JEFF
x--------------------------------------------------------------x---|
x-------------------9---9--------------------9--9--------------x---|
x--9----------------9---9---9----------------9--9--------------x---|
x-----9-9h11p9------9---9------9-9h11p9------9--9--------------x---|  2x
x----------------11-11-11----------------11-11-11--------------x---|
x--------------------------------------------------------------x---|


x----------------------------------------------------------x-|
x----------------------------------------------------------x-|
x----------------------13-13-------------------13--13------x-|
x---7)))))-------------14-14-9/11--7)))))------14--14------x-|
x---7)))))-------------11-11-9/11--7)))))------11--11------x-|
x---5)))))-------------------7/9---5)))))------------------x-|

GUITAR 2 JEFF


x---------------------------------------------------------x------|
x----7---------7------7-----7----------9-9-9-9-9-9-9-9-9--x------|
x-------9--------9------9-----9--------7-7-7-7-7-7-7-7-7--x  x 2-|
x----------11-----11----11---11--------7-7-7-7-7-7-7-7-7--x------|
x---------------------------------------------------------x------|
x---------------------------------------------------------x------|

x---------------------------------16-16-16-16-16-16-16-16-16---x-|
x----7-------7-----7---------------x--x--x--x--x--x--x--x--x---x-|
x------9-------9-----9------------14-14-14-14-14-14-14-14-14---x-|
x--------11-----11---11----------------------------------------x-|
x--------------------------------------------------------------x-|
x--------------------------------------------------------------x-|

x--------------------------------------------------------------------x-|
x----7-7-7--9-9--9-7-7-7-9-9-9--------7-7-7--9-9-9-7-7-7-9-9-9-------x-|
x--------------------------------------------------------------------x-|
x---7------------------------------7---------------------------------x-|
x---7------------------------------7---------------------------------x-|
x---5------------------------------5---------------------------------x-|

x----7--------------------------------------------------------------x-|
x----7p5--7p5-7p5---9-----------------------------------------------x-|
x-------------------------------------------------------------------x-|
x-------------------------------------------------------------------x-|
x-------------------------------------------------------------------x-|
x-------------------------------------------------------------------x-|

x-------------------------------------------------------------------x-|
x-------------------------------------------------------------------x-|
x--6-6-6-6-6-6--2-2-2-2-2--2-2-2-2-2--6-6-6-6-6-6-------------------x-|
x--6-6-6-6-6-6/-2-2-2-2-2--2-2-2-2-2--6-6-6-6-6-6--6-6-6-6-6--------x-|
x--4-4-4-4-4-4/-2-2-2-2-2--0-0-0-0-0--4-4-4-4-4-4--6-6-6-6-6--------x-|
x---------------0-0-0-0-0--------------------------4-4-4-4-4--------x-|

x------------------------------------------------x-|
x------------------------------------------------x-|
x----4-------4-----------------------------------x-|
x-6----6---6-----6---4h6p4-----------------------x-|
x---4----------4---------------------------------x-|
x------------------------------------------------x-|


x-------------------------------------------------------------------------------x-|
x-------------------------------------------------------------------------------x-|
x-9--13-9-9--13-9-11h13p11-9--9-13-9--13--9-13h14p13-11--11--11--11--13-13-13---x-|
x--11------11---------------11------11--------------------14---14---14----------x-|
x-------------------------------------------------------------------------------x-|
x-------------------------------------------------------------------------------x-|

x-----------------------------------------------------------x-|
x-----------------------------------------------------------x-|
x--9-----9--------------------------------------------------x-|
x--9-----9--------------------------------------------------x-|
x--6-----6--------------------------------------------------x-|
x-----------------------------------------------------------x-|

		GUITAR 1 NICK

x-------------------------------------------------------------------x-|
x----------------9-9-9-9-9-9------9-9-9-9-9-9-----------------------x-|
x-11-9-13--9-----9-9-9-9-9-9------9-9-9-9-9-9-----------------------x-|
x--11-11-11-11---7-7-7-7-7-7--7---7-7-7-7-7-7--7--777777-7----------x-|
x-----------------------------7----------------7--777777-7-77-77--7-x-|
x-----------------------------5----------------5--555555-5-55-55--5-x-|

x-------------------------------------------------------------------x-|
x-------------------------------------------------------------------x-|
x-------------------------------------------------------------------x-|
x--7777777-11111111--2222222----------------------------------------x-|
x--7777777-11111111--2222222----------------------------------------x-|
x--5555555--9999999--0000000----------------------------------------x-|

x-------------------------------------x-|
x-------------------------------------x-|
x-------------------------------------x-|
x---5*--------------------------------x-|
x---5*--------------------------------x-|
x---5*--------------------------------x-|

x--4---4-4-----------------------------7-7-7--x-|
x-5-5-5-5-4h5h7p5p4h5-------------------------x-|
x---------------------6h8h9-6h8h9--6h8--------x-|
x---------------------------------------------x-|
x---------------------------------------------x-|
x---------------------------------------------x-|

x-------------------------------------------x-|
x-------------------------------------------x-|
x----14--14--14-----------------------------x-|
x----13--13--13-----------------------------x-|
x----12--12--12-----------------------------x-|
x-------------------------------------------x-|

		GUITAR 2  JEFF
x---------------------------------------x-|
x---------------------------------------x-|
x---------------------------------------x-|
x-------------------22222-2222222-------x-|
x--2222222-2222222--00000-0000000-------x-|
x--0000000-0000000----------------------x-|

		GUITAR 1 NICK

x--12t9p7t12-------------4-4-4--4-4-4---x-|
x---------------------------------------x-|
x---------------------------------------x-|
x---------------------------------------x-|
x---------------------------------------x-|
x---------------------------------------x-|

            
            
Suggest correction
Creating personal tab
Creating personal tab
You can edit any tab online and save it as your Personal.

You can edit, replace or remove any tab part or add personal notes – all changes will be seen only by you.

Personal tabs can be accessed anytime from any device, even offline.
Learn more »
Give kudos to tab author, rate the tab!
1 2 3 4 5
comments
print report bad tab
2 comments total.
0 reply
customisbetter 191 Dec 19, 2008 02:03 PM

This band and song kick so much ass! Thanks for the tab!

0 reply
andrew12398 286 Jan 24, 2009 12:27 PM

Amazing tab for an amazing song, you should do more!

guest
You may want to rate the tab now too:
select rating
Wanna post a correction for this tab? Suggest correction