Oops, an error
Loading. Please wait.

Melody 5 intro tab

1,997 views 3 this week
1 commentread comment
1 2 3 4 5
x 3
add to favorites
×
Save as Personal and add changes to this tab that will be seen only by you. Learn more ›
×
You can save this tab as Personal to edit and correct it or add notes. All changes will be seen only by you. Learn more »
launch autoscroll
font size
0
reset
how to read this tab
guitar tuner
edit
Autoscroll
slow
fast
+/-
esc
set tempo
stop
Author
This is kind of a hard song to play at first.  There's a short video of them
playing this on Youtube if you need reference.  It's called Tera Melos 
Destroying Davis.  Anyway, The first guitar is all tapped.  The "T's" mean 
the note is tapped with the right hand, while everything else is tapped with 
the left hand.  I'm 100% sure this fingering is right.  The second guitar is 
all picked.  The notes are all 100% right on this one, but I'm not so sure 
on the fingering, so it might be beneficial to experiment a little.  As one 
last note, this is probably the coolest intro I've ever heard

15/16
     T     T        T       T       T
     S S S S  S  S  S  S  S S S  S  S  S  S     4x
||----------------------------------------------||
||o------------------------------3-------------o||
||---9-----------6--------7---3----------10-----||
||-----7------4--------5---------------8--------||
||o------5---------10---------------6----------o||
||---------6----------------3-------------------||
|
|   
|    S S S S  S  S  S  S  S S S  S  S  S  S     4x
||----------------------------------------------||
||o--------------------------------------------o||
||--------------13-------14-----10--------------||
||--11-9-----11-------12------8-------11-12-----||
||o------9-8--------9-------5------10----------o||
||----------------------------------------------||

Last Time
     T     T        T       
     S S S S  S  S  S  S  S   Q 
||---------------------------------------||
||---------------------------------------||
||---9-----------6--------7---3----------||
||-----7------4--------5------5----------||
||-------5---------10---------5----------||
||---------6------------------3----------||
|
|   
|    S S S S  S  S  S  S  S   Q
||---------------------------------------||
||---------------------------------------||
||--------------13-------14--------------||
||--11-9-----11-------12-----------------||
||-------9-8--------9---------7----------||
||---------------------------------------||


            
            
Suggest correction
Creating personal tab
Creating personal tab
You can edit any tab online and save it as your Personal.

You can edit, replace or remove any tab part or add personal notes – all changes will be seen only by you.

Personal tabs can be accessed anytime from any device, even offline.
Learn more »
Give kudos to tab author, rate the tab!
1 2 3 4 5
comments
print report bad tab
1 comment total.
0 reply
Jackozee 10 Mar 15, 2014 10:05 AM

15/16
T T T T T
S S S S S S S S S S S S S S S 4x
||----------------------------------------------||
||o------------------------------3-------------o||
||---9-----------6--------7---3----------10-----||
||-----7------4--------5---------------8--------||
||o------5--------------------------6----------o||
||---------6--------7-------3-------------------||

That seventh note was wrong, but everything else was perfect. ;)

guest
You may want to rate the tab now too:
select rating
Wanna post a correction for this tab? Suggest correction