Oops, an error
Loading. Please wait.

Hang Tough bass

version 1
version 1

Whole song

  • Full bass tab, all riffs included.

Interactive

by Tesla
259 views 1 this week
2 commentsread comments
1 2 3 4 5
2 more votes to show rating
add to favorites
×
Save as Personal and add changes to this tab that will be seen only by you. Learn more ›
×
You can save this tab as Personal to edit and correct it or add notes. All changes will be seen only by you. Learn more »
launch autoscroll
font size
0
reset
guitar tuner
edit
Autoscroll
slow
fast
+/-
esc
set tempo
stop
Author
Difficulty
About this tab version
Full bass tab, all riffs included. Was this info helpful? Yes No
[Intro]

G|---------------------------------|
D|---------5-----------------------|
A|-5h7-7-7---7-7-7-5h7-7-7-5h7-7-7-|  play 3x
E|---------------------------------|

G|------------------------------------|
D|---------5--------------------------|
A|-5h7-7-7---7-7-7-/14-14-14-14-------|
E|------------------------------12\---|

G|---------------------------------|
D|---------5-----------------------|
A|-5h7-7-7---7-7-7-5h7-7-7-5h7-7-7-|  play 7x
E|---------------------------------|

G|------------------------------------|
D|---------5--------------------------|
A|-5h7-7-7---7-7-7-/14-14-14-14-14~---|
E|------------------------------------|

[Verse]
G|---------------------------------|
D|---------5-----------------------|
A|-5h7-7-7---7-7-7-5h7-7-7-5h7-7-7-|  play 7x
E|---------------------------------|

G|---------------------------------|
D|---------5-----------------------|
A|-5h7-7-7---7-7-7-5h7-7-7-7\------|
E|---------------------------------|


[Prechorus]
G|-------------------------|-------------------------|
D|-------------------------|-------------------------|
A|-7-----5-------7---------|-7--7--5-------7---------|  play 2x
E|-------------6---5-3-----|-------------6---5-3-----|

G|---------------------------------------------------------------------------|
D|---------------------------------------------------------------------------|
A|---------------------------------------------------------------------------|
E|---------------------------------------------------------------------------|


[Intro Returns]
G|---------------------------------|
D|---------5-----------------------|
A|-5h7-7-7---7-7-7-5h7-7-7-5h7-7-7-|  play 3x
E|---------------------------------|

G|------------------------------------|
D|---------5--------------------------|
A|-5h7-7-7---7-7-7-/14-14-14-14-------|
E|------------------------------12\---|


[Verse 2]
G|---------------------------------|
D|---------5-----------------------|
A|-5h7-7-7---7-7-7-5h7-7-7-5h7-7-7-|  play 7x
E|---------------------------------|

G|---------------------------------|
D|---------5-----------------------|
A|-5h7-7-7---7-7-7-5h7-7-7-7\------|
E|---------------------------------|


[Prechorus 2]
G|-------------------------|-------------------------|
D|-------------------------|-------------------------|
A|-7-----5-------7---------|-7--7--5-------7---------|  play 2x
E|-------------6---5-3-----|-------------6---5-3-----|


[Chorus]
G|---------------------|---------------------|---------------------|-------------------------|
D|---------------------|---------------------|---------------------|-------------------------|
A|---------8-------0-0-|-3----3--------------|---------8---8p7p5---|--------10---10/12-10-7--|
E|-5-------------------|---------3-----3/7---|-5-----------------5-|-8----8------------------|
                  PM PM

G|---------------------|---------------------|---------------------|--------------------|
D|---------------------|---------------------|---------------------|--------------------|
A|---------8-------0-0-|-3----3--------------|---------8-----------|-3----3-------------|
E|-5-------------------|---------3-----3/7---|-5-------------------|----------3---------|


[Guitar Solo]
G|--------------------|------------------|
D|--------------------|------------------|
A|--------------------|-5----------------|  play 3x
E|-7-------7----------|--------5---------|

G|--------------------|------------------|
D|--------------------|------------------|
A|--------------------|-5---5------------|
E|-7-------7----------|---------5--------|


[Bridge]
G|-----------------|------------------|-----------------|-------------------|
D|-----------------|-9----------------|-7h9-------------|-9--------9--7-----|
A|--------------9--|------------------|---------------9-|----------------9--|
E|-7---------------|------------------|-----------------|-------------------|

   vocals enter
G|-----------------|------------------|-----------------|---------------------|
D|-----------------|------------------|-----------------|---------------------|
A|-----------------|------------------|-----------------|---------------------| play 2x
E|-7---------------|-9----------------|-10--------------|-12-------12--10--9--|

G|-----------------|------------------|-----------------|---------------------|
D|-----------------|------------------|-----------------|---------------------|
A|-----------------|------------------|-----------------|---------------------| 
E|-7---------------|-9--------------9-|-10-----------10-|-12-------12--10--9--|

G|-----------------|------------------|-----------------|---------------------|---------------------|
D|-----------------|------------------|-----------------|---------------------|---------------------|
A|-----------------|------------------|-----------------|---------------------|---------------------| 
E|-7---------------|-9--------------9-|-10-----------10-|-12--12-12-12--12-12-|-12--12-12-12--12-12-|



[Final Chorus]
G|---------------------|---------------------|---------------------|-------------------------|
D|---------------------|---------------------|---------------------|-------------------------|
A|---------8---------5-|-3----3--------------|---------8---8p7p5---|--------10---10/12-10-7--|
E|-5-------------------|---------3-----3-----|-5-----------------5-|-8----8------------------|
                  

G|---------------------|---------------------|---------------------|--------------------|
D|---------------------|---------------------|---------------------|--------------------|
A|---------8-------0-0-|-3----3--------------|---------8-----------|-3----3-------------|
E|-5-------------------|---------3-----3-----|-5-------------------|----------3---------|

G|---------------------|---------------------|---------------------|-------------------------|
D|---------------------|---------------------|---------------------|-------------------------|
A|---------8---------5-|-3----3--------------|---------8---8p7p5---|--------10---10/12-10-7--|
E|-5-------------------|---------3-----3-----|-5-----------------5-|-8----8------------------|
                  
G|---------------------|---------------------|---------------------|--------------------|
D|---------------------|---------------------|---------------------|--------------------|
A|---------8-------0-0-|-3----3--------------|---------8-----------|-3----3-------------|
E|-5-------------------|---------3-----3-----|-5-------------------|----------3---------|


[Ending]

G|---------------|---------------|---------------|----------------|
D|---------------|---------------|---------------|----------------|
A|---------------|---------------|---------------|----------------|
E|-3--3----------|-3--3----------|-3--3----------|-5--5-----------|



************************************
Key
| h   Hammer-on
| p   Pull-off
| /   Slide up
| \   Slide down
| PM  Palm mute

************************************

            
            
Suggest correction
Creating personal tab
Creating personal tab
You can edit any tab online and save it as your Personal.

You can edit, replace or remove any tab part or add personal notes – all changes will be seen only by you.

Personal tabs can be accessed anytime from any device, even offline.
Learn more »
Give kudos to tab author, rate the tab!
1 2 3 4 5
comments
print report bad tab
2 comments total.
0 reply
bhendric1 10 Feb 20, 2017 09:50 AM

Great tab. Thanks!

0 reply
jjhand 18,994 Feb 20, 2017 09:29 PM

I always liked Tesla, especially "Love song" and "Signs". I think they were underrated and had a great guitar sound.

guest
You may want to rate the tab now too:
select rating
Wanna post a correction for this tab? Suggest correction