Oops, an error
Loading. Please wait.

Love Song intro tab

version 1
version 1
by Tesla
94,400 views 78 this week
8 commentsread comments
1 2 3 4 5
x 17
add to favorites
×
Save as Personal and add changes to this tab that will be seen only by you. Learn more ›
×
You can save this tab as Personal to edit and correct it or add notes. All changes will be seen only by you. Learn more »
launch autoscroll
font size
0
reset
how to read this tab
guitar tuner
backing track
0:00
0:00
edit
Autoscroll
slow
fast
+/-
esc
set tempo
stop
Author
Unregistered
the intro is just finger picking you will have to listen to the song to play it

Standard Tuning.


e|-3-3h2p0-------------|
B|---------7s-2-2-2----|
G|---------------------|
D|-0-------------------|
A|---------------------|
E|---------------------|

e|-2-3-2h3p0----------------------------|
B|------------2-3-5-3---4-3----0-2-3----|
G|--------------------4-----4-----------|
D|-0----------0-------------------------|
A|------------------2-------------------|
E|-----------------------------3--------|

e|-------------------------------------|
B|-------------------------------------|
G|-4-2-0-3x----------4-2-0-1x----------|
D|----------2-4-0-1x-------------------|
A|----------------------------4-2-0----|
E|-------------------------------------|

 same part
e|-------------------------|
B|-------------------------|
G|-4h2p0-------------------|
D|--------4h2p0------------|
A|---------------4h2p0-----|
E|-------------------------|


************************************

| h  Hammer-on
| p  Pull-off

************************************

            
            
Suggest correction
Creating personal tab
Creating personal tab
You can edit any tab online and save it as your Personal.

You can edit, replace or remove any tab part or add personal notes – all changes will be seen only by you.

Personal tabs can be accessed anytime from any device, even offline.
Learn more »
comments
print report bad tab
8 comments total. Showing first comments.
-2 reply
zaccy 201 Jan 03, 2005 07:00 PM

all these other ones suck ass i like this nice work

+2 reply
WCS_Is_Worse1 20 Sep 19, 2006 04:42 PM

sucks dont even try ever again

+2 reply
mousepad2 10 May 23, 2008 08:47 AM

wow youre a FAG

guest
Wanna post a correction for this tab? Suggest correction