Oops, an error
Loading. Please wait.

Modern Day Cowboy bass

version 1
version 1

Whole song

Interactive

by Tesla
5,524 views 15 this week
1 commentread comment
1 2 3 4 5
x 7
add to favorites
×
Save as Personal and add changes to this tab that will be seen only by you. Learn more ›
×
You can save this tab as Personal to edit and correct it or add notes. All changes will be seen only by you. Learn more »
launch autoscroll
font size
0
reset
guitar tuner
backing track
0:00
0:00
edit
Autoscroll
slow
fast
+/-
esc
set tempo
stop
modern day cowboy : tesla



INTRO

|------|-----|----|----|------|-----------|----|----|-----------|----------|
|------|-----|----|----|------|-----------|----|----|--5-4------|--3-2-----|
|------|--0--|----|----|------|--0-0---0--|----|----|-------5---|------3---|
|--1---|-----|----|----|--1---|-----------|----|----|-----------|----------|
	let the A note ring	  Let the A note ring


|------------------|------------------|------------------|------------------|
|------------------|------------------|------------------|------------------|
|--0-0-0-0-0-0-0-0-|--0-0-0-0-0-------|--0-0-0-0-0-0-0-0-|--0-0-0-0-0-0-0---|
|------------------|------------1-2-3-|------------------|----------------1-|

|------------------|------------------|------------------|------|
|------------------|------------------|------------------|------|
|--0-0-0-0-0-0-0-0-|--0-0-0-0-0-------|--0-0-0-0-0-------|------|
|------------------|------------1-2-3-|------------1---3-|------|


Verses

|------------------|------------------|------------------|------------------|
|------------------|------------------|------------------|------------------|
|--0-0-0-0-0-0-0-0-|--0-0-0-0-0-0-0-0-|--0-0-0-0-0-0-0-0-|--0-0-0-0-0-0-0---|
|------------------|------------------|------------------|----------------1-|

|------------------|------------------|------------------|------------------|
|------------------|------------------|------------------|------------------|
|--0-0-0-0-0-0-0-0-|--0-0-0-0-0-0-0-0-|--0-0-0-0-0-0-0-0-|--0-0-0-0-0-------|
|------------------|------------------|------------------|------------1-2-3-|

|------------------|------------------|------------------|------------------|
|------------------|------------------|------------------|------------------|
|--0-0-0-0-0-0-0-0-|--0-0-0-0-0-0-0-0-|--0-0-0-0-0-0-0-0-|--0-0-0-0-0-0-0---|
|------------------|------------------|------------------|----------------1-|


|------------------|------------------|------------------|--------------------|
|------------------|------------------|------------------|--------------------|
|--0-0-0-0-0-0-0-0-|--0-0-0-0-0-------|--0-0-0-0-0-0-0-0-|--0-0-0-0-0-0-0-2-0-|
|------------------|------------1-2-3-|------------------|--------------------|



Chorus

|---------------|--------------|-------------|------------|
|---------------|--------------|-------------|------------|
|--2--2--2--2-0-|----------2-0-|--2--2--2--2-|------------|
|---------------|--1--1--1-----|-------------|--1----3----|

|------------------|------------------|------------------|----------------|
|------------------|------------------|------------------|----------------|
|--0-0-0-0-0-0-0-0-|--0-0-0-0-0-------|--0-0-0-0-0-0-0-0-|--0-0-0-0-0-0---|
|------------------|------------1-2-3-|------------------|--------------1-|

|------------------|--------------------|------------------|-----|----|--|--|---------|
|------------------|--------------------|------------------|-----|----|--|--|---7-5---|
|--0-0-0-0-0-0-0-0-|--0-0-0-0-0-0-------|--0-0-0-0-0-0-0-0-|-----|--0-|--|--|-------7-|
|------------------|--------------1-2-3-|------------------|--0--|----|--|--|---------|

Bridge/Solo


|---------------|---------------|---------------|--------|-------------|---------------|
|---------------|---------------|---------------|--------|-------------|---------------|
|--0-0-0--0-3-0-|--0-0-0--0---0-|-----------0---|--------|--0-0-0--0-0-|--0-0-0--0---0-|
|---------------|-----------3---|--3-3-3--3---3-|--1---3-|-------------|-----------3---|

|--|-------|------------------|------------------|------------------|------------------|
|--|-------|------------------|------------------|------------------|------------------|
|3-|-------|--0-0-0-0-0-0-0-0-|--0-0-0-0-0-------|--0-0-0-0-0-0-0-0-|--0-0-0-0-0-0-0---|
|--|--3----|------------------|------------1-2-3-|------------------|----------------1-|

|----------|----------|----|--|--|--|---------|
|----------|----------|----|--|--|--|---------|
|----------|----------|--0-|--|--|--|----12--|
|--0---0---|--0---0---|----|--|--|--|---------|



Intro
Verse1
Chorus
Verse2
Chorus
Bridge/Solo
Verse3
Chorus
Out (outro is a same as verse with some minor variations)


            
            
Suggest correction
Creating personal tab
Creating personal tab
You can edit any tab online and save it as your Personal.

You can edit, replace or remove any tab part or add personal notes – all changes will be seen only by you.

Personal tabs can be accessed anytime from any device, even offline.
Learn more »
comments
print report bad tab
1 comment total.
+1 reply
sk8er guitarist 20 Feb 18, 2009 01:02 PM

hey it sk8er guitarist nice tab if only i had a bass

guest
You may want to rate the tab now too:
select rating
Wanna post a correction for this tab? Suggest correction