Oops, an error
Loading. Please wait.

Make Me A Robot tab

1,669 views 21 this week
1 commentread comment
1 2 3 4 5
x 11
add to favorites
×
Save as Personal and add changes to this tab that will be seen only by you. Learn more ›
×
You can save this tab as Personal to edit and correct it or add notes. All changes will be seen only by you. Learn more »
launch autoscroll
font size
0
reset
how to read this tab
guitar tuner
edit
Autoscroll
slow
fast
+/-
esc
set tempo
stop
hord Voicings:
C:x32010
Em:022000
Am:x02210
F:xx3211
G:320003
E:022100


[Intro]
   C
e|---------------------------------|
B|---------------------------------|
G|---------------------------------|
D|---2---2---2---2---2---2---2---2-|
A|-3---3---3---3---3---3---3---3---|
E|---------------------------------|

[Verse]
   C               Em              Am               F       G
e|-------------------------------------------------------------------|
B|-------------------------------------------------------------------|
G|----------------------------------------------------2---2---0---0--|
D|---2---2---2---2---2---2---2---2---2---2---2---2--3---3---0---0----|
A|-3---3---3---3---2---2---2---2---0---0---0---0---------------------|
E|-------------------------------------------------------------------|
(I don't want to be a human anymore, I'm done)

   C               Em              Am               F       G
e|-------------------------------------------------------------------|
B|-------------------------------------------------------------------|
G|----------------------------------------------------2---2---0---0--|
D|---2---2---2---2---2---2---2---2---2---2---2---2--3---3---0---0----|
A|-3---3---3---3---2---2---2---2---0---0---0---0---------------------|
E|-------------------------------------------------------------------|
(I don't want to have to feel anymore, he's won)

  C                Am               F                C        G
e|------------------------------------------------------------------------|
B|------------------------------------------------------------------------|
G|-------------------------------------2---2---2---2---0---0---0---0------|
D|---2---2---2---2---2---2---2---2---3---3---3---3---2---2---0---0--------|
A|-3---3---3---3---0---0---0---0------------------------------------------|
E|------------------------------------------------------------------------|
(I'm too old to change. Take my heart, no new start; please just let me fall apart.)

  C                Am               F                C        G
e|------------------------------------------------------------------------|
B|------------------------------------------------------------------------|
G|-------------------------------------2---2---2---2---0---0---0---0------|
D|---2---2---2---2---2---2---2---2---3---3---3---3---2---2---0---0--------|
A|-3---3---3---3---0---0---0---0------------------------------------------|
E|------------------------------------------------------------------------|
(You may say it's strange, But I quit, guess that's it; for a human, I'm unfit, so)

[Chorus]
   Am           F               C               G
e|-----------------------------------------------------------------|
B|-----------------------------------------------------------------|
G|----------------2---2---2---2------------------------------------|
D|---2---2---2--3---3---3---3-----2---2---2---2---0---0---0---0----|
A|-0---0---0--------------------3---3---3---3---2---2---2---2------|
E|-----------------------------------------------------------------|
(Make me a robot, make me a robot. Make, make me cold)

    Am           F               C               G
e|-----------------------------------------------------------------|
B|-----------------------------------------------------------------|
G|----------------2---2---2---2------------------------------------|
D|---2---2---2--3---3---3---3-----2---2---2---2---0---0---0---0----|
A|-0---0---0--------------------3---3---3---3---2---2---2---2------|
E|-----------------------------------------------------------------|
(Make me a robot, Make me a robot. Take, take my soul)

[Verse 2]
   C               Em              Am               F       G
e|-------------------------------------------------------------------|
B|-------------------------------------------------------------------|
G|----------------------------------------------------2---2---0---0--|
D|---2---2---2---2---2---2---2---2---2---2---2---2--3---3---0---0----|
A|-3---3---3---3---2---2---2---2---0---0---0---0---------------------|
E|-------------------------------------------------------------------|
(I don't want to have to fight anymore, I'm tired)

   C               Em              Am               F       G
e|-------------------------------------------------------------------|
B|-------------------------------------------------------------------|
G|----------------------------------------------------2---2---0---0--|
D|---2---2---2---2---2---2---2---2---2---2---2---2--3---3---0---0----|
A|-3---3---3---3---2---2---2---2---0---0---0---0---------------------|
E|-------------------------------------------------------------------|
(I don't want to have to feel anymore uninspired)

  C                Am               F                C        G
e|------------------------------------------------------------------------|
B|------------------------------------------------------------------------|
G|-------------------------------------2---2---2---2---0---0---0---0------|
D|---2---2---2---2---2---2---2---2---3---3---3---3---2---2---0---0--------|
A|-3---3---3---3---0---0---0---0------------------------------------------|
E|------------------------------------------------------------------------|
(I am too worn out; broken down, on the ground, I'm too shy to make a sound)

  C                Am               F                C        G
e|------------------------------------------------------------------------|
B|------------------------------------------------------------------------|
G|-------------------------------------2---2---2---2---0---0---0---0------|
D|---2---2---2---2---2---2---2---2---3---3---3---3---2---2---0---0--------|
A|-3---3---3---3---0---0---0---0------------------------------------------|
E|------------------------------------------------------------------------|
(All I have is doubt; I don't care, you can stare, 'cause a human can't compare, so)

[Chorus]
   Am           F               C               G
e|-----------------------------------------------------------------|
B|-----------------------------------------------------------------|
G|----------------2---2---2---2------------------------------------|
D|---2---2---2--3---3---3---3-----2---2---2---2---0---0---0---0----|
A|-0---0---0--------------------3---3---3---3---2---2---2---2------|
E|-----------------------------------------------------------------|
(Make me a robot, make me a robot. Make, make me cold)

    Am           F               C               G
e|-----------------------------------------------------------------|
B|-----------------------------------------------------------------|
G|----------------2---2---2---2------------------------------------|
D|---2---2---2--3---3---3---3-----2---2---2---2---0---0---0---0----|
A|-0---0---0--------------------3---3---3---3---2---2---2---2------|
E|-----------------------------------------------------------------|
(Make me a robot, Make me a robot. Take, take my soul)

[Bridge]
   E                     Am                        E                    Am
e|------------------------------------------------------------------------------------------------|
B|--------0-----------0-----------1-----------1-----------0-----------0-----------1-----------1---|
G|---1---------1------------2-----------2------------1---------1------------2-----------2---------|
D|------2----------2------------2-----------2-----------2----------2------------2-----------2-----|
A|-2---------2-----------0-----------0-------------2---------2-----------0-----------0------------|
E|------------------------------------------------------------------------------------------------|
(To human is to err, forgiveness is divine. I don't care, you can take my spine 'cause I'm)


   F               C                E                       Am
e|-----------------------------------------------------------------------------------|
B|-------------------------------------------0-----------0------------1-----------1--|
G|---2---2---2---2---0---0---0---0-----1-----------1------------2-----------2--------|
D|-3---3---3---3---2---2---2---2----------2------------2-----------2-----------2-----|
A|----------------------------------2-----------2------------0-----------0-----------|
E|-----------------------------------------------------------------------------------|
(spineless anyway, I don't need another day or a call. Take it all.)

[Verse 3]
   C               Em              Am               F       G
e|-------------------------------------------------------------------|
B|-------------------------------------------------------------------|
G|----------------------------------------------------2---2---0---0--|
D|---2---2---2---2---2---2---2---2---2---2---2---2--3---3---0---0----|
A|-3---3---3---3---2---2---2---2---0---0---0---0---------------------|
E|-------------------------------------------------------------------|
(I don't want to be a human anymore, I'm done)

   C               Em              Am               F       G
e|-------------------------------------------------------------------|
B|-------------------------------------------------------------------|
G|----------------------------------------------------2---2---0---0--|
D|---2---2---2---2---2---2---2---2---2---2---2---2--3---3---0---0----|
A|-3---3---3---3---2---2---2---2---0---0---0---0---------------------|
E|-------------------------------------------------------------------|
(I don't want to have to feel anymore, he's won)

[Final Chorus]
   Am           F               C               G
e|-----------------------------------------------------------------|
B|-----------------------------------------------------------------|
G|----------------2---2---2---2------------------------------------|
D|---2---2---2--3---3---3---3-----2---2---2---2---0---0---0---0----|
A|-0---0---0--------------------3---3---3---3---2---2---2---2------|
E|-----------------------------------------------------------------|
(Make me a robot, make me a robot. Make, make me cold)

   Am                F               C               G              C
e|------------------------------------------------------------------------------------|
B|------------------------------------------------------------------------------------|
G|--------------------2---2---2---2---------------------------------------------------|
D|---2---2---2---2--3---3---3---3-----2---2---2---2---0---0---0---0---2---2---2---2---|
A|-0---0---0---0--------------------3---3---3---3---2---2---2---2---3---3---3---3---3-|
E|------------------------------------------------------------------------------------|
(Make me a robot, Make me a robot. Take, take my soul)

            
            
Suggest correction
Creating personal tab
Creating personal tab
You can edit any tab online and save it as your Personal.

You can edit, replace or remove any tab part or add personal notes – all changes will be seen only by you.

Personal tabs can be accessed anytime from any device, even offline.
Learn more »
comments
print report bad tab
1 comment total.
0 reply
GuitarsNRoses 73 Aug 14, 2017 02:18 PM

Thank you so much for your work!

guest
You may want to rate the tab now too:
select rating
Wanna post a correction for this tab? Suggest correction