Oops, an error
Loading. Please wait.

Circle Square Triangle tab

version 2
version 2

Whole song

Interactive

2,757 views 1 this week
5 commentsread comments
1 2 3 4 5
x 5
add to favorites
×
Save as Personal and add changes to this tab that will be seen only by you. Learn more ›
×
You can save this tab as Personal to edit and correct it or add notes. All changes will be seen only by you. Learn more »
launch autoscroll
font size
0
reset
how to read this tab
guitar tuner
edit
Autoscroll
slow
fast
+/-
esc
set tempo
stop
Author
Difficulty
order of song

intro
verse
chorus
intro/preverse
verse
chorus
guitar solo
bridge
verse
chorus

guitar 1

intro/chorus

e--------------------------------------------------------|
b-9--9--9--9--9--9--9--9--9--9---10-10-10-10-10-10-10-10-|
g-9--9--9--9--9--9--9--9--9--9---9--9--9--9--9--9--9--9--|
d-11-11-11-11-11-11-11-11-11-11--11-11-11-11-11-11-11-11-|
a--------------------------------------------------------|
E--------------------------------------------------------|

verse

e-----------|
b----9-12-9-|
g-----------|
d--11-------|
a-----------|
E-----------|

verse part 2
(a combonation of all three of the parts above also)
e------------------------------------------------------------------|
B------------------------------------------------------------------|
G------------------------------------------------------------------|
D-11s-14b-7-7s-9/--------------------------------------------------|
A------------------------------------------------------------------|
E------------------------------------------------------------------|

guitar solo

???? a slur of notes really
e------------------------------------------------------------------|
B------------------------------------------------------------------|
G------------------------------------------------------------------|
D------------------------------------------------------------------|
A------------------------------------------------------------------|
E------------------------------------------------------------------|

rap bridge (keyboard organ synthy thing for guitar)

e------------------------------------------------------------------|
B-14--------------------------14~-fbk.-----------------------------|
G------------------------------------------------------------------|
D-11-repeat--------------------------------------------------------|
A------------------------------------------------------------------|
E------------------------------------------------------------------|


guitar 2

intro

e------------------------------------------------------------------|
B------------------------------------------------------------------|
G------------------------------------------------------------------|
D-/11~-------------------------------------------------------------|
A------------------------------------------------------------------|
E------------------------------------------------------------------|

e------------------------------------------------------------------|
B-12-12--12-12--10-10--9--9----------------------------------------|
G-9--9---9--9---9--9---9--9----------------------------------------|
D-11-11--11-11--11-11--11-11---------------------------------------|
A------------------------------------------------------------------|
E------------------------------------------------------------------|

verse

e------------------------------------------------------------------|
B------------------------------------------------------------------|
G------------------------------------------------------------------|
D-11-11-11-9-9-9-7-7-7-6-6-6---------------------------------------|
A------------------------------------------------------------------|
E------------------------------------------------------------------|

e------------------------------------------------------------------|
B------------------------------------------------------------------|
G------------------------------------------------------------------|
D-11-11--14/--11-11-14/--------------------------------------------|
A------------------------------------------------------------------|
E------------------------------------------------------------------|

chorus

e------------------------------------------------------------------|
B------------------------------------------------------------------|
G------------------------------------------------------------------|
D-11~--------------------------------------------------------------|
A------------------------------------------------------------------|
E------------------------------------------------------------------|

pre-bridge

e------------------------------------------------------------------|
b------------------------------------------------------------------|
G-16fbk.---------weird-string noises-------------------------------|
D------------------------------------------------------------------|
A------------------------------------------------------------------|
E------------------------------------------------------------------|

bass

intro

G--------------------------------------------------------------------|
D--------------------------------------------------------------------|
A--------------------------------------------------------------------|
E-1/9~-9-------------------------------------------------------------|

G------------------------------------------------------------------|
D------------------------------------------------------------------|
A------------------------------------------------------------------|
E-9-9-9-9-7-7-7-7--4-4-5-5-5-5-5-5-5-4-4-4-4-4---------------------|

chorus
G------------------------------------------------------------------|
D------------------------------------------------------------------|
A------------------------------------------------------------------|
E-9--9-9--12-12-12-14-14-14-17-17-17-------------------------------|

verse

G--------------------------------------------------------------------|
D-------------------7-7-9-10-11------7-7-9-10-11~--------------------|
A-----7\----7\----7----------------7---------------------------------|
E-9-9----9-9---9-9--------------9-9-----------9----------------------|

G---------------------------------------------------------------------|
D---------------------------------------------------------------------|
A-9-7-5-4--9-7-5-4--9-7-5-4--9-7-4-11---------------------------------|
E---------------------------------------------------------------------|

bridge

G------------------------------------------------------------------|
D---------------------------9-11-----------------------------------|
A-------------------9-10-11----------------------------------------|
E-9-9-9-9-9-9-10-11------------------------------------------------|

G------------------------------------------------------------------|
D------------------------------------------------------------------|
A------------------------------------------------------------------|
E-9-9-9-9-7-7-7-7-5-5-5-5-7-7-7-8-9-9------------------------------|

            
            
Suggest correction
Creating personal tab
Creating personal tab
You can edit any tab online and save it as your Personal.

You can edit, replace or remove any tab part or add personal notes – all changes will be seen only by you.

Personal tabs can be accessed anytime from any device, even offline.
Learn more »
comments
print report bad tab
5 comments total. Showing first comments.
0 reply
jason_smiths 10 Jun 24, 2006 05:29 PM

not a bad tab mate but u missed the verse rhythm if i was to play it ur way i would play it like this.........

e---------------------- e----------------
g--9--12--9---9--12--9- g--11-11-11-11---
b--9--9---9---9--9---9- X2 then b--9--9--9--9---- X2
d--11-11--11--11-11--11 d--12-12-12-12---
a---------------------- a----------------
e---------------------- e----------------

cheers for the tab pal.

0 reply
jason_smiths 10 Jun 24, 2006 05:30 PM

woops that ****ed up a bit

0 reply
jason_smiths 10 Jun 24, 2006 05:31 PM

that 11th fret should be a 10th im having a ****ing mare

guest
You may want to rate the tab now too:
select rating
Wanna post a correction for this tab? Suggest correction