Oops, an error
Loading. Please wait.

Musical Death tab

version 2
version 2

Whole song

Interactive

14,526 views 12 this week
no commentswrite comment
1 2 3 4 5
3 more votes to show rating
add to favorites
×
Save as Personal and add changes to this tab that will be seen only by you. Learn more ›
×
You can save this tab as Personal to edit and correct it or add notes. All changes will be seen only by you. Learn more »
launch autoscroll
font size
0
reset
how to read this tab
guitar tuner
edit
Autoscroll
slow
fast
+/-
esc
set tempo
stop
Author
TESTAMENT-MUSICAL DEATH(A DIRGE) Tuning: EADGBe




(Peterson on acoustic)acoustic riff 1
|---------5---8---7-5-4---4---4---|-------5---8---------------------|
|-o---5-------------------------5-|---5-----------6-5-------------5-|
|-----------------------7---7---5-|-----5-------------7---7---7---5-|
|---7---7---7---------------------|-7-------7-----------6---6-------|
|-o-0-----------------------------|-0-------------------------------|
|---------------------------------|---------------------------------|

|-------5---8---13-12-10----10----10-13-|-13-10-7--4-5-------------|
|---5-----------------------------------|-15-12-9--6-5----5----5-o-|
|------------------------13----13-------|-16-12-10-7-5----4----5---|
|-7---7---7-----------------------------|------------7----6----7---|
|-0-------------------------------------|------------------------o-|
|---------------------------------------|--------------------------|

Skolnick(electric) peterson playing acoustic riff 1 over this
|-------------------|---5-7--7b8b7r5---------|---5-7--7b8b7r5---17-15-13~-|
|-10-9-10-----------|-5-5------------6-5-----|-5-5------------------------|
|---------7-10--9~~-|--------------------7~~-|----------------------------|
|-------------------|------------------------|----------------------------|
|-------------------|------------------------|----------------------------|
|-------------------|------------------------|----------------------------|

|-13-12-10---------------------------------------------------------------------------10-12----|
|----------13-12-10-9-------------------------------------------------------10-12-13-------10~|
|---------------------10-9------------------------------------------9-10-12-------------------|
|--------------------------12-10-9----------9-10----9-10-12-9-10-12---------------------------|
|----------------------------------12-11-12------12-------------------------------------------|
|---------------------------------------------------------------------------------------------|

|----------12---------------------------|
|-------13------13----------------------|
|----14--------------14-----------------|
|-14----------------------14b15-----r14-|
|---------------------------------------|
|---------------------------------------|

|----------------12-17p12-----------------------------12-17-15-12----------|
|-------------13----------13-----------------------13-------------15b17r15-|
|----------14-----------------14-----------------14------------------------|
|-------14-----------------------14-----------14---------------------------|
|-12h15-----------------------------15--12h15------------------------------|
|--------------------------------------------------------------------------|

|----------------12-15-17-15-13-|
|-------------13----------------|
|----------14-------------------|
|-------14----------------------|
|-12-15-------------------------|
|-------------------------------|

|-13-10------10------------------------------------------------------------------------|
|-------12-9----12-9----12-9-------9---------------------------------------------------|
|--------------------10------10------10--------------------9----10-9-------------------|
|-------------------------------12------12-9----10-9-12-10---12------12-10-9-----------|
|--------------------------------------------12------------------------------12-11-8-7-|
|--------------------------------------------------------------------------------------|

|----------------------|
|----------------------|
|-----------14---15-14-|
|-7~~--12~~------------|
|----------------------|
|----------------------|

Skolnick(acoustic)
|-------0-------------0-------|--------0--------------0---------|
|--6-----6---6---6------6---6-|---6------6---6---6------6---6---|
|----7-------------7----------|-----7--------------7------------|
|-0----0---0---8-----8----8---|-9-----9----9---8-----8----8-----|
|-----------------------------|---------------------------------|
|-----------------------------|---------------------------------|
|
| Peterson(electric)
|---------------------------------------------------------------|
|---------------------------------------------------------------|
|---7------7--9-----7-9-9--9/10---(10)\9--10-12--10-9-(9)/10-9--|
|---x------x--x-----x-x-x--x--------x--x--x--x---x--x--x--x--x--|
|---5------5--7-----5-7-7--7/8-----(8)\7--8--10--8--7-(7)/8--7--|
|---------------------------------------------------------------|

with skolnick on acoustic riff 2 over this
|------------------------------PH---------------------|
|------------------------------13---------------------|
|------------------------------------------------12---|
|-12-14-15---14-12-14b15----15----15-14-12-14-15------|
|-----------------------------------------------------|
|-----------------------------------------------------|

|-----PH----------------------------------------------|
|-----------------------------------------------------|
|-14--14--14-12----12---------------------------------|
|---------------15----15-14-15-15b17r15-14--12-----12-|
|----------------------------------------------15-----|
|-----------------------------------------------------|

|----------------------------------------|
|----------------------------------------|
|--------------14--15-14-12-14-----------|
|-14b15r14--15------------------12----14-|
|----------------------------------------|
|----------------------------------------|

|-------20b22r20-18--20---22-20-18-20-18----18-------|
|-----x----------------------------------18----18-17-|
|---x------------------------------------------------|
|-x--------------------------------------------------|
|----------------------------------------------------|
|----------------------------------------------------|

|----------------------------------------------------|
|-15-------15-17-18-17-15-17---18-18-17-15-17-18-17--|
|----17b19-------------------------------------------|
|----------------------------------------------------|
|----------------------------------------------------|
|----------------------------------------------------|

|--------------------------------------------------------|-------------------------|
|-17b18-17b18r17--15-17-15-------15-17--17b18---17b18r17-|-------------------------|
|--------------------------17b19-------------------------|-14b15---12--------------|
|--------------------------------------------------------|------------15-14-15-14--|
|--------------------------------------------------------|-------------------------|
|--------------------------------------------------------|-------------------------|
                                                
|--------------------------------------------|-------------------|
|-------------------10--8--6-----------------|-------------------|
|-7-9-10---9-7-9-10--9--9--7--9-7-9--9b10r9--|--7----------------|
|--------------------------------------------|--0----------------|
|--------------------------------------------|--*----------------|
|--------------------------------------------|-------------------|
*=skolnick hits this open D after the acoustic riff

Skolnick(acoustic)[peterson on acoustic riff 2)
|-----5h8--6-5--------|-------10h13---12---10---|--5--5-------------------------|
|---6-----------6-5-6-|----10-------------------|--6--6b------------------------|
|-7-------------------|-10----------------------|--------7---5------------------|
|---------------------|-------------------------|--------------7p5----3---------|
|---------------------|-------------------------|-----------------------5p3--5--|
|---------------------|-------------------------|-------------------------------|

|------------------5h8-|-----5h8-8-8-8b-5--------------|
|-------6--------6-----|---6---------------6--8--5h6---|
|-----5---7----7-------|-7---------------------------7-|
|-5h7------------------|-------------------------------|
|----------------------|-------------------------------|
|----------------------|-------------------------------|

|-13-13-13-13-12-12-12--13-13-15-15-12-12-----------|
|-----------------------------------------14-14-11--|
|---------------------------------------------------|
|---------------------------------------------------|
|---------------------------------------------------|
|---------------------------------------------------|

|----10-12-13-12-10-12----10-------------10-|
|-10-------------------13----11-------11----|
|----------------------------------10-------|
|-------------------------------------------|
|-------------------------------------------|
|-------------------------------------------|

|-13-12-10---------------------------------------|
|----------13-11-10------------------------------|
|-------------------12-10-9--10-7----5--7p6p5p3--|
|------------------------------------------------|
|------------------------------------------------|
|------------------------------------------------|

|-----------------------------------------------------|
|-----------------------------------------------------|
|-----------------------------------------------(5)/7-|
|----------------------------2-3----0h2h3--5h7--------|
|-(3)/5----3-1-0-1----1-2--------1--------------------|
|-----------------------------------------------------|

Peterson(electric) Skolnick on electric with electric riff 1
|--20b22-----20b22--20b22--20b22--20b22----20b22--20b22--20b22--|
|---------------------------------------------------------------|
|---------------------------------------------------------------|
|---------------------------------------------------------------|
|---------------------------------------------------------------|
|---------------------------------------------------------------|

|-20b22----20b22-20b22-20b22-20b22-22b25----22-20-------------|
|-------------------------------------------------22-21-20-16-|
|-------------------------------------------------------------|
|-------------------------------------------------------------|
|-------------------------------------------------------------|
|-------------------------------------------------------------|

|-----------15-16-17-15-17-15-17-17-------17-17-17-17-17-------17-17-17-|
|-20b22-----------------------------20b22----------------20b22----------|
|-----------------------------------------------------------------------|
|-----------------------------------------------------------------------|
|-----------------------------------------------------------------------|
|-----------------------------------------------------------------------|
  
|-17-17-------17-17-17-17-17-------17--13b15--13-10------------------------|
|-------20b22----------------20b22------------------13---------------------|
|------------------------------------------------------12b14r12--10--------|
|-------------------------------------------------------------------12-----|
|--------------------------------------------------------------------------|
|--------------------------------------------------------------------------|

Skolnick(elctric)peterson acoustic riff 2
|----------------------------|
|----------------------------|
|--------------14-15-14------|
|-12----14--15---------------|
|----------------------------|
|----------------------------|                slight
                                                Ph
|-------------5/10-13--12---13--13b15--13-10------------------|
|-----------6--------------------------------13---------------|
|---------7-------------------------------------12b14r12--10--|
|-------7-----------------------------------------------------|
|---5h8-------------------------------------------------------|
|-------------------------------------------------------------|
  
|----------------5/10h13/17-13----13-----------------|
|--------------6----------------15----15----15-------|
|------------7---------------------------14----14----|
|----------7--------------------------------------15-|
|------5h8-------------------------------------------|
|----------------------------------------------------|

|----------------13-17--------------------------|
|-------------15-------15-18-17b18r17--15-------|
|----------14-----------------------------17----|
|----12h15--------------------------------------|
|-12--------------------------------------------|
|-----------------------------------------------|

|----------------17-22p17---------------------------17--|
|-------------18----------18----------------------18----|
|----------19----------------19----------------19-------|
|-------19----------------------19----------19----------|
|-17h20----------------------------20-17h20-------------|
|-------------------------------------------------------|

|-----------5/10-13-12-10----|----13b15-13-12-10-12-10-----12-------------|
|---------6---------------13-|-10---------------------13b15--13-10-13-10--|
|-------7--------------------|--------------------------------------------|
|-----7----------------------|--------------------------------------------|
|-5h8------------------------|--------------------------------------------|
|----------------------------|--------------------------------------------|

|--------------------------------------------|
|-------10-----------------------------------|
|-12b14----12-10-12-10-----------------------|
|----------------------12-10/12--------------|
|--------------------------------------------|
|--------------------------------------------|

Acoustic Outro:
|-------0-------------0-------|--------0--------------0---------|
|--6-----6---6---6------6---6-|---6------6---6---6------6---6---|
|----7-------------7----------|-----7--------------7------------|
|-0----0---0---8-----8----8---|-9-----9----9---8-----8----8-----|
|-----------------------------|---------------------------------|
|-----------------------------|---------------------------------|

Electric riff 1
|----------------------------|------------------------|----------------------------|
|----------------------------|------------------------|----------------------------|
|-7--------------------------|------------------------|----------------------------|
|-7----------8---------------|-9----------8-----------|-5----------8---------------|
|-5----------8---------------|-9----------8-----------|-5----------8---------------|
|-5---5-5-5--6--6--6-6-6--6--|-7---7-7-7--6--6-6-6--6-|-5---5-5-5--6--6--6-6-6--6--|
PM    . . .     .  . . .  .        . . .     . . .  .       . . .     .  . . .  . 

|-----------------|
|-----------------|
|-----------------|
|--9---------10---|
|--9---------10---|
|--7--7-7-7--8----|
       . . .

            
            
Suggest correction
Creating personal tab
Creating personal tab
You can edit any tab online and save it as your Personal.

You can edit, replace or remove any tab part or add personal notes – all changes will be seen only by you.

Personal tabs can be accessed anytime from any device, even offline.
Learn more »
Give kudos to tab author, rate the tab!
1 2 3 4 5
comments
print report bad tab
guest
You may want to rate the tab now too:
select rating
Wanna post a correction for this tab? Suggest correction