Oops, an error
Loading. Please wait.

Antichrist bass

2,301 views 15 this week
2 commentsread comments
1 2 3 4 5
x 3
add to favorites
×
Save as Personal and add changes to this tab that will be seen only by you. Learn more ›
×
You can save this tab as Personal to edit and correct it or add notes. All changes will be seen only by you. Learn more »
launch autoscroll
font size
0
reset
guitar tuner
edit
Autoscroll
slow
fast
+/-
esc
set tempo
stop
The 1975 - Antichrist
Album: Facedown EP (2012)

Worked it out by ear, feel free to correct any mistakes.

----------------------------------------------------------------------------------------------------------------

Intro: No bass.

----------------------------------------------------------------------------------------------------------------

Verse 1 (0:15 - 0:47):

G|---------------------------------------------------------------|
D|---------------------------------------------------------------|
A|-3--3--5~------------------------------------------------------| x4
E|----------5--5~------------------------------------------------|

----------------------------------------------------------------------------------------------------------------

Pre-chorus (0:48 - 1:03): No bass.

----------------------------------------------------------------------------------------------------------------

Chorus 1 (1:04 - 1:19):

Very unsure about this. To me it sounds pretty good when you play the following:

G|---------------------------------------------------------------|
D|---------------------------------------------------------------|
A|---------------------------------------------------------------| x2
E|-8-8-8-8-8-8-8-5-5-5-5-5-5-5-8-8-8-8-8-8-8-1-1-1-1-1-1-1-------|

But you can clearly hear that he both ends and begins on the same note. So it would need to be something like:


G|---------------------------------------------------------------|
D|---------------------------------------------------------------|
A|---------------------------------------------------------------| x2
E|-8-8-8-8-8-8-8-5-5-5-5-5-5-5-?-?-?-?-?-?-?-8-8-8-8-8-8-8-------|

Would appreciate help with this, it's really bugging me.

----------------------------------------------------------------------------------------------------------------

Verse 2 (1:20 - 1:51):

G|---------------------------------------------------------------|
D|---------------------------------------------------------------|
A|-3--3--5~------------------------------------------------------| x2
E|----------5--5~------------------------------------------------|

G|---------------------------------------------------------------|
D|---------------------------------------------------------------|
A|-3--3----------------------------------------------------------| x1
E|-------1~--5~--------------------------------------------------|


G|---------------------------------------------------------------|
D|---------------------------------------------------------------|
A|-7--7-------3--------------------------------------------------| x1
E|-------1~--1-5-------------------------------------------------|

----------------------------------------------------------------------------------------------------------------

Chorus 2 (1:52 - 2:23):

Same as chorus 1, the following sounds decent but is probably slightly wrong.

G|---------------------------------------------------------------|
D|---------------------------------------------------------------|
A|---------------------------------------------------------------| x4
E|-8-8-8-8-8-8-8-5-5-5-5-5-5-5-8-8-8-8-8-8-8-1-1-1-1-1-1-1-------|

----------------------------------------------------------------------------------------------------------------

Verse 3 (2:24 - 2:55):

G|---------------------------------------------------------------|
D|---------------------------------------------------------------|
A|-3--3--5~------------------------------------------------------| x2
E|----------5--5~------------------------------------------------|

G|---------------------------------------------------------------|
D|---------------------------------------------------------------|
A|-3--3----------------------------------------------------------| x1
E|-------1~--5~--------------------------------------------------|


G|---------------------------------------------------------------|
D|---------------------------------------------------------------|
A|-7--7-------3--------------------------------------------------| x1
E|-------1~--1-5-------------------------------------------------|

----------------------------------------------------------------------------------------------------------------

Outro (2:56 - 4:49):

Bass starts at 3:11.

G|--------------------------------------------------------------------|
D|--------------------------------------------------------------------|
A|--------------------------------------------------------------------| x8
E|-1-1-1-1-1-1-1-1-5-5-5-5-5-5-5-5-3-3-3-3-3-3-3-3-3-3-3-3-3-3-3-3----|

G|--------------------------------------------------------------------|
D|--------------------------------------------------------------------|
A|--------------------------------------------------------------------| x1
E|-1~-5~-1~-5~-1~-5~-1~-5~-1~-----------------------------------------|

----------------------------------------------------------------------------------------------------------------

            
            
Suggest correction
Creating personal tab
Creating personal tab
You can edit any tab online and save it as your Personal.

You can edit, replace or remove any tab part or add personal notes – all changes will be seen only by you.

Personal tabs can be accessed anytime from any device, even offline.
Learn more »
Give kudos to tab author, rate the tab!
1 2 3 4 5
comments
print report bad tab
2 comments total.
0 reply
AngeloMC213 90 Feb 29, 2016 06:34 AM

Correction at (1:04-1:09)
G|---------------------------------------------------------------|
D|---------------------------------------------------------------|
A|-8888------------88888-----------------------------------------|
E|------55555-8888-----------------------------------------------|

0 reply
scarecrow1997 598 Apr 09, 2017 10:00 PM

Hey that correction sounds accurate to me!

guest
You may want to rate the tab now too:
select rating
Wanna post a correction for this tab? Suggest correction