Oops, an error
Loading. Please wait.
We have Chord Pro version of Chocolate.
It's the closest thing you can get to the original song and it has interactive parts. Check out the tab »
×

Chocolate tab

version 9
version 9

Whole song

Interactive

1,165 views 1 this week
no commentswrite comment
1 2 3 4 5
2 more votes to show rating
add to favorites
×
Save as Personal and add changes to this tab that will be seen only by you. Learn more ›
×
You can save this tab as Personal to edit and correct it or add notes. All changes will be seen only by you. Learn more »
launch autoscroll
font size
0
reset
how to read this tab
guitar tuner
edit
Autoscroll
slow
fast
+/-
esc
set tempo
stop
Author
Difficulty
About this tab version
I believe that this is close to how the actual song is played and I have not seen this song tabbed like my version before. Was this info helpful? Yes No
----------------------------------------------------------------- 
Chocolate - The 1975
----------------------------------------------------------------- 

Tabbed by: jude.barr.7

Made this tab by listening to the song and watching videos of it being played (by the band).
Tuning: Standard E-a-d-g-b-e

Lead guitar: Compression, Delay and Reverb

Rhythm guitar 1: Compression, Overdrive, Delay and a bit of Reverb

Rhythm guitar 2: (same as rhythm guitar 1)

| /  slide up
| \  slide down
| h  hammer-on
| p  pull-off
| ~  vibrato
| +  harmonic
| x  Mute note

-----
INTRO
-----

Lead guitar - intro riff (x1):
e|--------------------------------------------------|
B|-----5--4--------------4-----------4--------------|
G|-4-4-------6--4--6-6-6-----4-6-6-6-----4-6-6-6-4--|
D|--------------------------------------------------|  
A|--------------------------------------------------|
E|--------------------------------------------------|

e|--------------------------------------------------------|
B|---5--4--------------4------------4---------------------|
G|-4-------6--4--6-6-6----6-4-6-6-6----6-4-6-4---6-6-6-4--|
D|--------------------------------------------------------|
A|--------------------------------------------------------|
E|--------------------------------------------------------|

e|----------------------------------------------|
B|-5--4--------------4-----------4--------------|
G|-------6--4--6-6-6-----4-6-6-6-----4-6-6-6-4--|
D|----------------------------------------------|
A|----------------------------------------------|
E|----------------------------------------------|

e|--------------------------------------------------|
B|---5--4--------------4----------------------------|
G|-4-------6--4--6-6-6----6-4--6--6-6-6-4--6-6-6-4--|
D|--------------------------------------------------|
A|--------------------------------------------------|
E|--------------------------------------------------|

Rhythm guitar 1 - intro riff (x16):
e|---------------------------|
B|---------------------------|
G|-----------16--------------|
D|--x--x--x--x--x--16-x--x---|
A|--14-14-14-14-14-14-14-14--|
E|---------------------------|

-------
VERSE 1
-------

Rhythm guitar 1 - verse 1 (x16):

e|---------------------------|
B|---------------------------|
G|-----------16--------------|
D|--x--x--x--x--x--16-x--x---|
A|--14-14-14-14-14-14-14-14--|
E|---------------------------|

------------
PRE-CHORUS 1
------------

Lead guitar - pre-chorus 1 (x2):

e|------------------------------------------------------------------|
B|--------------4--------------4--------------4---------------------|
G|--4-6-4-6-4-6----4-6-4-6-4-6----4-6-4-6-4-6----4-6-4-6-4-6-6-6-4--|
D|------------------------------------------------------------------|
A|------------------------------------------------------------------|
E|------------------------------------------------------------------|

e|----------------------------------------------------|
B|--5--4--4-------------------------4-----------------|
G|-----------4-6-6-6-6-6-4--4-6-4-6----4-6-4-6-6-6-4--|
D|----------------------------------------------------|
A|----------------------------------------------------|
E|----------------------------------------------------|

Rhythm guitar 1 - pre-chorus 1 (x16):

e|---------------------------|
B|---------------------------|
G|-----------16--------------|
D|--x--x--x--x--x--16-x--x---|
A|--14-14-14-14-14-14-14-14--|
E|---------------------------|

--------
CHORUS 1
--------

Lead guitar - chorus 1 (x1):

e|----------------------------------------------|
B|-5--4--------------4-----------4--------------|
G|-------6--4--6-6-6-----4-6-6-6-----4-6-6-6-4--|
D|----------------------------------------------|
A|----------------------------------------------|
E|----------------------------------------------|

e|---------------------------------------------------------|
B|---5--4--------------4-----------------------------------|
G|-4-------6--4--6-6-6----6-4-6-6-6-4---6-4-6-4---6-6-6-4--|
D|---------------------------------------------------------|
A|---------------------------------------------------------|
E|---------------------------------------------------------|

e|----------------------------------------------|
B|-5--4--------------4-----------4--------------|
G|-------6--4--6-6-6-----4-6-6-6-----4-6-6-6-4--|
D|----------------------------------------------|
A|----------------------------------------------|
E|----------------------------------------------|

e|--------------------------------------------------|
B|---5--4--------------4----------------------------|
G|-4-------6--4--6-6-6----6-4--6--6-6-6-4--6-6-6-4--|
D|--------------------------------------------------|
A|--------------------------------------------------|
E|--------------------------------------------------|

Rhythm guitar 1 - chorus 1 (x8):

e|---------------------------------------------------|
B|---------------------------------------------------|
G|-----------18----16----------------16--------------|
D|--x--x--x--x--x--x--x--16-x--x--x--x--x--16-x--x---|
A|--14-14-14-14-14-14-14-14-14-14-14-14-14-14-14-14--|
E|---------------------------------------------------|

Rhythm guitar 2 - chorus 1 (x4):

e|--7-7-7-7-7-7-7-7--|
B|--7-7-7-7-7-7-7-7--|
G|-------------------|  (x3)
D|-------------------|
A|-------------------|
E|-------------------|

e|--6-6-6-6-6-6-6-6--|
B|--7-7-7-7-7-7-7-7--|
G|-------------------|  (x1)
D|-------------------|
A|-------------------|
E|-------------------|

-------
VERSE 2
-------

[Guitar parts drop out for first part of verse 2 but join in the 
pre-chorus]

------------
PRE-CHORUS 2
------------

Lead guitar - pre-chorus 2:

e|--------------------------------------------|
B|-5--4--------------4----5--4----------------|
G|-------6--4--6-6-6-----------6--4--6-6-6-4--|
D|--------------------------------------------|
A|--------------------------------------------|
E|--------------------------------------------|

e|-------------------------------------------------|
B|---5--4--------------4------4--------------------|
G|-4-------6--4--6-6-6----6-6----6--4--4--6-6-6-4--|
D|-------------------------------------------------|
A|-------------------------------------------------|
E|-------------------------------------------------|

e|-----------------------------------------------------|
B|-----------4------------4------------4---------------|
G|--4--6-6-6-----4--6-6-6-----4--6-6-6-----4--6-6-6-4--|
D|-----------------------------------------------------|
A|-----------------------------------------------------|
E|-----------------------------------------------------|

e|-----------------------------------------------------|
B|---5--4--------------4------------4------------------|
G|-4-------6--4--6-6-6----6-4-6-6-6----6-4--4-6-6-6-4--|
D|-----------------------------------------------------|
A|-----------------------------------------------------|
E|-----------------------------------------------------|

Rhythm guitar 1 - pre-chorus 2 (x16):

e|---------------------------|
B|---------------------------|
G|-----------16--------------|
D|--x--x--x--x--x--16-x--x---|
A|--14-14-14-14-14-14-14-14--|
E|---------------------------|

--------
CHORUS 2
--------

[Same as chorus 1]

Lead guitar - chorus 2 (x1):

e|----------------------------------------------|
B|-5--4--------------4-----------4--------------|
G|-------6--4--6-6-6-----4-6-6-6-----4-6-6-6-4--|
D|----------------------------------------------|
A|----------------------------------------------|
E|----------------------------------------------|

e|---------------------------------------------------------|
B|---5--4--------------4-----------------------------------|
G|-4-------6--4--6-6-6----6-4-6-6-6-4---6-4-6-4---6-6-6-4--|
D|---------------------------------------------------------|
A|---------------------------------------------------------|
E|---------------------------------------------------------|

e|----------------------------------------------|
B|-5--4--------------4-----------4--------------|
G|-------6--4--6-6-6-----4-6-6-6-----4-6-6-6-4--|
D|----------------------------------------------|
A|----------------------------------------------|
E|----------------------------------------------|

e|--------------------------------------------------|
B|---5--4--------------4----------------------------|
G|-4-------6--4--6-6-6----6-4--6--6-6-6-4--6-6-6-4--|
D|--------------------------------------------------|
A|--------------------------------------------------|
E|--------------------------------------------------|

Rhythm guitar 1 - chorus 2 (x8):

e|---------------------------------------------------|
B|---------------------------------------------------|
G|-----------18----16----------------16--------------|
D|--x--x--x--x--x--x--x--16-x--x--x--x--x--16-x--x---|
A|--14-14-14-14-14-14-14-14-14-14-14-14-14-14-14-14--|
E|---------------------------------------------------|

Rhythm guitar 2 - chorus 2 (x4):

e|--7-7-7-7-7-7-7-7--|
B|--7-7-7-7-7-7-7-7--|
G|-------------------|  (x3)
D|-------------------|
A|-------------------|
E|-------------------|

e|--6-6-6-6-6-6-6-6--|
B|--7-7-7-7-7-7-7-7--|
G|-------------------|  (x1)
D|-------------------|
A|-------------------|
E|-------------------|

--------
BRIDGE 1
--------

Rhythm guitar 1 - bridge 1 (x8):

e|---------------------------------------------------|
B|-----------14---------------------16---------------|
G|----------------16-----------------------16--------|
D|--x--x--x--x--x--x--x--16-x--x--x--x--x--x--x--16--|
A|--14-14-14-14-14-14-14-14-14-14-14-14-14-14-14-14--|
E|---------------------------------------------------|

Rhythm guitar 2 - bridge 1 (x4):

e|--7-7-7-7-7-7-7-7--|
B|--7-7-7-7-7-7-7-7--|
G|-------------------|  (x3)
D|-------------------|
A|-------------------|
E|-------------------|

e|--6-6-6-6-6-6-6-6--|
B|--7-7-7-7-7-7-7-7--|
G|-------------------|  (x1)
D|-------------------|
A|-------------------|
E|-------------------|

--------
CHORUS 3
--------

Lead guitar - chorus 3 (x1):

[Some very slight variations compared to previous chorus]

e|----------------------------------------------|
B|-5--4--------------4-----------4--------------|
G|-------6--4--6-6-6-----4-6-6-6-----4-6-6-6-4--|
D|----------------------------------------------|
A|----------------------------------------------|
E|----------------------------------------------|

e|---------------------------------------------------------|
B|---5--4--------------4-----------------------------------|
G|-4-------6--4--6-6-6----6-4-6-6-6-4---6-4-6-4---6-6-6-4--|
D|---------------------------------------------------------|
A|---------------------------------------------------------|
E|---------------------------------------------------------|

e|----------------------------------------------|
B|-5--4--------------4-----------4-----4-4-4----|
G|-------6--4--6-6-6-----4-6-6-6-----4-------6--|
D|----------------------------------------------|
A|----------------------------------------------|
E|----------------------------------------------|

e|--------------------------------------------------|
B|---5--4--------------4----------------------------|
G|-4-------6--4--6-6-6----6-4--6--6-6-6-4--6-6-6-4--|
D|--------------------------------------------------|
A|--------------------------------------------------|
E|--------------------------------------------------|

Rhythm guitar 1 - chorus 3 (x8):

e|---------------------------------------------------|
B|---------------------------------------------------|
G|-----------18----16----------------16--------------|
D|--x--x--x--x--x--x--x--16-x--x--x--x--x--16-x--x---|
A|--14-14-14-14-14-14-14-14-14-14-14-14-14-14-14-14--|
E|---------------------------------------------------|

Rhythm guitar 2 - chorus 3 (x4):

e|--7-7-7-7-7-7-7-7--|
B|--7-7-7-7-7-7-7-7--|
G|-------------------|  (x3)
D|-------------------|
A|-------------------|
E|-------------------|

e|--6-6-6-6-6-6-6-6--|
B|--7-7-7-7-7-7-7-7--|
G|-------------------|  (x1)
D|-------------------|
A|-------------------|
E|-------------------|

--------------
BRIDGE 2/OUTRO
--------------

Lead guitar - bridge 2 (x1):
e|--------------------------------------------------|
B|-----5--4--------------4-----------4--------------|
G|-4-4-------6--4--6-6-6-----4-6-6-6-----4-6-6-6-4--|
D|--------------------------------------------------|  
A|--------------------------------------------------|
E|--------------------------------------------------|

e|--------------------------------------------------------|
B|---5--4--------------4------------4---------------------|
G|-4-------6--4--6-6-6----6-4-6-6-6----6-4-6-4---6-6-6-4--|
D|--------------------------------------------------------|
A|--------------------------------------------------------|
E|--------------------------------------------------------|

e|----------------------------------------------|
B|-5--4--------------4-----------4--------------|
G|-------6--4--6-6-6-----4-6-6-6-----4-6-6-6-4--|
D|----------------------------------------------|
A|----------------------------------------------|
E|----------------------------------------------|

e|--------------------------------------------------|
B|---5--4--------------4----------------------------|
G|-4-------6--4--6-6-6----6-4--6--6-6-6-4--6-6-6-4--|
D|--------------------------------------------------|
A|--------------------------------------------------|
E|--------------------------------------------------|

Rhythm guitar 1 - bridge 2 (x8):

e|---------------------------------------------------|
B|-----------14---------------------16---------------|
G|----------------16-----------------------16--------|
D|--x--x--x--x--x--x--x--16-x--x--x--x--x--x--x--16--|
A|--14-14-14-14-14-14-14-14-14-14-14-14-14-14-14-14--|
E|---------------------------------------------------|

Rhythm guitar 2 - bridge 2 (x4):

e|--7-7-7-7-7-7-7-7--|
B|--7-7-7-7-7-7-7-7--|
G|-------------------|  (x3)
D|-------------------|
A|-------------------|
E|-------------------|

e|--6-6-6-6-6-6-6-6--|
B|--7-7-7-7-7-7-7-7--|
G|-------------------|  (x1)
D|-------------------|
A|-------------------|
E|-------------------|

---
END
---

            
            
Suggest correction
Creating personal tab
Creating personal tab
You can edit any tab online and save it as your Personal.

You can edit, replace or remove any tab part or add personal notes – all changes will be seen only by you.

Personal tabs can be accessed anytime from any device, even offline.
Learn more »
Give kudos to tab author, rate the tab!
1 2 3 4 5
comments
print report bad tab
guest
You may want to rate the tab now too:
select rating
Wanna post a correction for this tab? Suggest correction