Oops, an error
Loading. Please wait.

Love Me bass

23,494 views 78 this week
5 commentsread comments
1 2 3 4 5
x 24
add to favorites
×
Save as Personal and add changes to this tab that will be seen only by you. Learn more ›
×
You can save this tab as Personal to edit and correct it or add notes. All changes will be seen only by you. Learn more »
launch autoscroll
font size
0
reset
guitar tuner
edit
Autoscroll
slow
fast
+/-
esc
set tempo
stop
Author
Difficulty
intermediate
I'm aware the tab is very spaced out. This is for accuracy.
You might want to use autoscroll.

[Intro]

G|-----------------------------------------------------------------|
D|-----------------------------------------------------------------|
A|-8---\-------------------------x-5-----6-r-----x-5-----6-r-----x-|
E|-------------1---1-----------------------------------------------|
   1 e + a 2 e + a 3 e + a 4 e + a 1 e + a 2 e + a 3 e + a 4 e + a

G|-----------------------------------------------------------------|
D|-----------------------------------------------------------------|
A|-8---\-------------------------x-5-----6-r-----x-3-----5-r-------|
E|-------------1---1---------------------------------------------0-|
   1 e + a 2 e + a 3 e + a 4 e + a 1 e + a 2 e + a 3 e + a 4 e + a

G|-----------------------------------------------------------------|
D|-----------------------------------------------------------------|
A|-------------------------------x-5-----6-r-----x-5-----6-r-----x-|
E|-1-----------1---1-----------------------------------------------|
   1 e + a 2 e + a 3 e + a 4 e + a 1 e + a 2 e + a 3 e + a 4 e + a

G|-----------------------------------------------------------------|
D|-----------------------------------------------------------------|
A|-8---\-------------------------x-5-----6-r-----x-5------6-r----x-|
E|-------------1---1-----------------------------------------------|
   1 e + a 2 e + a 3 e + a 4 e + a 1 e + a 2 e + a 3 e + a 4 e + a


[Verse]

G|-----------------------------------------------------------------|
D|-----------------------------------------------------------------|
A|-8---\-------------------------x-5-----6-r-----x-5-----6-r-------|
E|-------------1---1-----------------------------------------------|
   1 e + a 2 e + a 3 e + a 4 e + a 1 e + a 2 e + a 3 e + a 4 e + a

G|-----------------------------------------------------------------|
D|---------------------------------------------------------6-------|
A|-8---\-------------------------x-5-----6-r-----x-5---6-----8-----|
E|-------------1---1-----------------------------------------------|
   1 e + a 2 e + a 3 e + a 4 e + a 1 e + a 2 e + a 3 e + a 4 e + a

G|-----------------------------------------------------------------|
D|-----------------------------------------------------------------|
A|-8---\-------------------------x-5-----6-r-----x-3-----5-r-------|
E|-------------1---1---------------------------------------------0-|
   1 e + a 2 e + a 3 e + a 4 e + a 1 e + a 2 e + a 3 e + a 4 e + a

G|-----------------------------------------------------------------|
D|-------------------------------------------------------------/-/-|
A|-------------------------------x-5-----6-r-----x-5-----6---------|
E|-1-----------1---1-----------------------------------------------|
   1 e + a 2 e + a 3 e + a 4 e + a 1 e + a 2 e + a 3 e + a 4 e + a


[Pre-Chorus]

G|-----------------5-------------------------------5---------------|
D|-8-----------8-r-----------------8-----------8-r-----------------|
A|-----------------------------------------------------------------|
E|-----------------------------------------------------------------|
   1 e + a 2 e + a 3 e + a 4 e + a 1 e + a 2 e + a 3 e + a 4 e + a

G|---------------------------------5---5---5---5---5---5---5---5---|
D|-8---8---8---8---8---8---8---8-----------------------------------|
A|-----------------------------------------------------------------|
E|-----------------------------------------------------------------|
   1 e + a 2 e + a 3 e + a 4 e + a 1 e + a 2 e + a 3 e + a 4 e + a

Rest


[Chorus]

G|---------------------------------------------------------5-------|
D|-------------------------6---------------------------------------|
A|-8---\-------6---8-----------------------------------------------|
E|---------------------------------6-----------6---8---------------|
   1 e + a 2 e + a 3 e + a 4 e + a 1 e + a 2 e + a 3 e + a 4 e + a

G|---------------------------------------------------------5-------|
D|-------------------------6---------------------------------------|
A|-8---\-------6---8-----8-----------------------------------------|
E|---------------------------------6-----------6---8---------------|
   1 e + a 2 e + a 3 e + a 4 e + a 1 e + a 2 e + a 3 e + a 4 e + a

G|---------------------------------------------------------5-------|
D|-------------------------6---------------------------------------|
A|-8---\-------6---8-----------------------------------------------|
E|---------------------------------6-----------6---8---------------|
   1 e + a 2 e + a 3 e + a 4 e + a 1 e + a 2 e + a 3 e + a 4 e + a

G|-----------------------------------------------------------------|
D|-------------------------6-------------------------------6-------|
A|-8---\---------------------------8---------------------8---------|
E|-------------6-6-8-----------------------------------------------|
   1 e + a 2 e + a 3 e + a 4 e + a 1 e + a 2 e + a 3 e + a 4 e + a


[Verse]

G|-----------------------------------------------------------------|
D|-----------------------------------------------------------------|
A|-8---\-------------------------x-5-----6-r-----x-5-----6-r-------|
E|-------------1---1-----------------------------------------------|
   1 e + a 2 e + a 3 e + a 4 e + a 1 e + a 2 e + a 3 e + a 4 e + a

G|-----------------------------------------------------------------|
D|---------------------------------------------------------6-------|
A|-8---\-------------------------x-5-----6-r-----x-5---6-----8-----|
E|-------------1---1-----------------------------------------------|
   1 e + a 2 e + a 3 e + a 4 e + a 1 e + a 2 e + a 3 e + a 4 e + a

G|-----------------------------------------------------------------|
D|-----------------------------------------------------------------|
A|-8---\-------------------------x-5-----6-r-----x-3-----5-r-------|
E|-------------1---1---------------------------------------------0-|
   1 e + a 2 e + a 3 e + a 4 e + a 1 e + a 2 e + a 3 e + a 4 e + a

G|-----------------------------------------------------------------|
D|-----------------------------------------------------------------|
A|-------------------------------x-5---6h5-r-----------------------|
E|-1-----------1---1---------------------------1-r-1-r-1-----------|
   1 e + a 2 e + a 3 e + a 4 e + a 1 e + a 2 e + a 3 e + a 4 e + a

  You Look Famous...
G|-----------------------------------------------------------------|
D|-----------------------------------------------------------------|
A|-8---\-------------------------x-5-----6-r-----x-5-----6-r-------|
E|-------------1---1---------------------------------------------0-|
   1 e + a 2 e + a 3 e + a 4 e + a 1 e + a 2 e + a 3 e + a 4 e + a

G|-----------------------------------------------------------------|
D|-------------------------------------------------------------/-/-|
A|-------------------------------x-5-----6-r-----x-5-----6---------|
E|-1-----------1---1-----------------------------------------------|
   1 e + a 2 e + a 3 e + a 4 e + a 1 e + a 2 e + a 3 e + a 4 e + a


[Pre-Chorus]

G|-----------------5-------------------------------5---------------|
D|-8-----------8-r-----------------8-----------8-r-----------------|
A|-----------------------------------------------------------------|
E|-----------------------------------------------------------------|
   1 e + a 2 e + a 3 e + a 4 e + a 1 e + a 2 e + a 3 e + a 4 e + a

G|---------------------------------5---5---5---5---5---5---5---5---|
D|-8---8---8---8---8---8---8---8-----------------------------------|
A|-----------------------------------------------------------------|
E|-----------------------------------------------------------------|
   1 e + a 2 e + a 3 e + a 4 e + a 1 e + a 2 e + a 3 e + a 4 e + a

Rest


[Chorus]

G|---------------------------------------------------------5-------|
D|-------------------------6---------------------------------------|
A|-8---\-------6---8-----------------------------------------------|
E|---------------------------------6-----------6---8---------------|
   1 e + a 2 e + a 3 e + a 4 e + a 1 e + a 2 e + a 3 e + a 4 e + a

G|---------------------------------------------------------5-------|
D|-------------------------6---------------------------------------|
A|-8---\-------6---8-----8-----------------------------------------|
E|---------------------------------6-----------6---8---------------|
   1 e + a 2 e + a 3 e + a 4 e + a 1 e + a 2 e + a 3 e + a 4 e + a

G|---------------------------------------------------------5-------|
D|-------------------------6---------------------------------------|
A|-8---\-------6---8-----------------------------------------------|
E|---------------------------------6-----------6---8---------------|
   1 e + a 2 e + a 3 e + a 4 e + a 1 e + a 2 e + a 3 e + a 4 e + a

G|-----------------------------------------------------------------|
D|-------------------------6-------------------------------6-------|
A|-8---\---------------------------8---------------------8---------|
E|-------------6-6-8-----------------------------------------------|
   1 e + a 2 e + a 3 e + a 4 e + a 1 e + a 2 e + a 3 e + a 4 e + a

G|-----------------------------------------------------------------|
D|-----------------------------------------------------------------|
A|-8-\-\-\-8-\-\-\-8-\-\-\-8-\-\-\---------------------------------|
E|-----------------------------------------------------------------|
   1 e + a 2 e + a 3 e + a 4 e + a 1 e + a 2 e + a 3 e + a 4 e + a


[Solo]

G|-----------------------------------------------------------------|
D|-----------------------------------------------------------------|
A|-8---\---------------------------5-----6-r-------5-----6-r-------|
E|-------------1---1-----------------------------------------------|
   1 e + a 2 e + a 3 e + a 4 e + a 1 e + a 2 e + a 3 e + a 4 e + a

G|-----------------------------------------------------------------|
D|-----------------------------------------------------------------|
A|---------------------------------5-----6-r-------5-----6-r-------|
E|-1-----------1---1-----------------------------------------------|
   1 e + a 2 e + a 3 e + a 4 e + a 1 e + a 2 e + a 3 e + a 4 e + a

G|-----------------------------------------------------------------|
D|-----------------------------------------------------------------|
A|---------------------------------5-----6-r-------5-----6-r-------|
E|-1-----------1---1-----------------------------------------------|
   1 e + a 2 e + a 3 e + a 4 e + a 1 e + a 2 e + a 3 e + a 4 e + a

G|-----------------------------------------------------------------|
D|-----------------------------------------------------------------|
A|-8---\---------------------------5-----6-r-------5------6-r------|
E|-------------1---1-----------------------------------------------|
   1 e + a 2 e + a 3 e + a 4 e + a 1 e + a 2 e + a 3 e + a 4 e + a


[Pre-Chorus]

G|-----------------5-------------------------------5---------------|
D|-8-----------8-r-----------------8-----------8-r-----------------|
A|-----------------------------------------------------------------|
E|-----------------------------------------------------------------|
   1 e + a 2 e + a 3 e + a 4 e + a 1 e + a 2 e + a 3 e + a 4 e + a

G|---------------------------------5---5---5---5---5---5---5---5---|
D|-8---8---8---8---8---8---8---8-----------------------------------|
A|-----------------------------------------------------------------|
E|-----------------------------------------------------------------|
   1 e + a 2 e + a 3 e + a 4 e + a 1 e + a 2 e + a 3 e + a 4 e + a


[Chorus]

G|-----------------------------------------------------------------|
D|---------------------------------------------------------6-------|
A|-----------------------------------------------------------------|
E|-1-------1-------1---------------6-----------6---8---------------|
   1 e + a 2 e + a 3 e + a 4 e + a 1 e + a 2 e + a 3 e + a 4 e + a

G|-----------------------------------------------------------------|
D|-----------------------------------------------------------------|
A|-----------------------------------------------------------------|
E|-1-------1-------1---------------6-----6-6-------4-----6-----4---|
   1 e + a 2 e + a 3 e + a 4 e + a 1 e + a 2 e + a 3 e + a 4 e + a

G|-----------------------------------------------------------------|
D|-----------------------------------------------------------------|
A|---------------------------------8-------6-------5---------------|
E|-1-------1-------1---------------------------------------8-------|
   1 e + a 2 e + a 3 e + a 4 e + a 1 e + a 2 e + a 3 e + a 4 e + a

G|-----------------------------------------------------------------|
D|-----------------------------------------------------------------|
A|-----------------------------------------------------------------|
E|-6-----6-6-r-----6-----6-6-r-----8-----8-8-r-----8-----8-8-r-----|
   1 e + a 2 e + a 3 e + a 4 e + a 1 e + a 2 e + a 3 e + a 4 e + a


[Outro]

G|---------------------------------------------------------5-------|
D|-------------------------6---------------------------------------|
A|-8---\-------6---8-----------------------------------------------|
E|---------------------------------6-----------6---8---------------|
   1 e + a 2 e + a 3 e + a 4 e + a 1 e + a 2 e + a 3 e + a 4 e + a

G|---------------------------------------------------------5-------|
D|-------------------------6---------------------------------------|
A|-8---\-------6---8-----8-----------------------------------------|
E|---------------------------------6-----------6---8---------------|
   1 e + a 2 e + a 3 e + a 4 e + a 1 e + a 2 e + a 3 e + a 4 e + a

G|---------------------------------------------------------5-------|
D|-------------------------6---------------------------------------|
A|-8---\-------6---8-----------------------------------------------|
E|---------------------------------6-----------6---8---------------|
   1 e + a 2 e + a 3 e + a 4 e + a 1 e + a 2 e + a 3 e + a 4 e + a

G|-----------------------------------------------------------------|
D|-------------------------6-------------------------------6-------|
A|-8---\---------------------------6---------------------8---------|
E|-------------6-6-8-----------------------------------------------|
   1 e + a 2 e + a 3 e + a 4 e + a 1 e + a 2 e + a 3 e + a 4 e + a

            
            
Suggest correction
Creating personal tab
Creating personal tab
You can edit any tab online and save it as your Personal.

You can edit, replace or remove any tab part or add personal notes – all changes will be seen only by you.

Personal tabs can be accessed anytime from any device, even offline.
Learn more »
comments
print report bad tab
5 comments total. Showing first comments.
+1 reply
Drausin 95 Mar 05, 2016 05:12 PM

This looks rad man! Thanks for taking the time to tab it out!

0 reply
Awesome_Girl 10 Mar 20, 2016 12:11 AM

Just wondering what does the r mean?

+1 reply
jonesb4 10 Jun 20, 2016 08:18 AM

the r means release

guest
You may want to rate the tab now too:
select rating
Wanna post a correction for this tab? Suggest correction