Oops, an error
Loading. Please wait.

Nana tab

version 1
version 1

Whole song

  • This tab is 75% close to the original song. I've s... Show more

Video

24,910 views 117 this week
1 commentread comment
1 2 3 4 5
x 17
add to favorites
×
Save as Personal and add changes to this tab that will be seen only by you. Learn more ›
×
You can save this tab as Personal to edit and correct it or add notes. All changes will be seen only by you. Learn more »
launch autoscroll
font size
0
reset
how to read this tab
guitar tuner
edit
Autoscroll
slow
fast
+/-
esc
set tempo
stop
-------------------------------------------------------------------------------------------------------
                                             Nana - The 1975
-------------------------------------------------------------------------------------------------------
***Capo on 1st fret***
***Fret numbers are relative to the capo***

Tuning: EADGBe
Tabbed by: Jalen Chin
Guitar 3 is just playing the bass notes if you listen closely. Listen for the timing.

/ = slide up


[Intro]

Guitar 1: x1
e|-----------------------------------------------------------------------------|
B|-----------------------------------------------------------------------------|
G|-6-4--------------------6-4-------------------6-4-------------------6--4-----|
D|-------4-6--4-6--4-2----------4-6--4-6--4-2---------4-6--4-6--4-2---------4--|
A|-----------------------------------------------------------------------------|
E|-----------------------------------------------------------------------------|

Guitar 2: x1
e|--7-7-------------7-7------------7-7-------------7----------7----|
B|------4-5-5-5---------4-5-5-5--------4-5-5-5-------4-4--4/5---5--|
G|------4-4-4-4---------4-4-4-4--------4-4-4-4------------4--------|
D|-----------------------------------------------------------------|
A|-----------------------------------------------------------------|
E|-----------------------------------------------------------------|

Guitar 3: x1
e|---------------------------------------------------------------|
B|---------------------------------------------------------------|
G|---------------------------------------------------------------|
D|----2----------------2----------------2------------------------|
A|-0-----2--4--2----0-----2--4--2----0-----2--4--2----0--0--2--2-|
E|---------------------------------------------------------------|


[Verse 1] (I wish you'd walk in again...)

Guitar 1: x2
e|-----------------------------------------------------------------------------|
B|-----------------------------------------------------------------------------|
G|-6-4--------------------6-4-------------------6-4-------------------6--4-----|
D|-------4-6--4-6--4-2----------4-6--4-6--4-2---------4-6--4-6--4-2---------4--|
A|-----------------------------------------------------------------------------|
E|-----------------------------------------------------------------------------|

Guitar 2: x1
e|--7-7-------------7-7------------7-7-------------7----------7----|
B|------4-5-5-5---------4-5-5-5--------4-5-5-5-------4-4--4/5---5--|
G|------4-4-4-4---------4-4-4-4--------4-4-4-4------------4--------|
D|-----------------------------------------------------------------|
A|-----------------------------------------------------------------|
E|-----------------------------------------------------------------|

e|--7-7-------------7-7------------7-7------------7-------------0---4----|
B|------4-5-5-5---------4-5-5-5--------4-5-5-5------4--------0----0------|
G|------4-4-4-4---------4-4-4-4--------4-4-4-4-----------1/2-----------2-|
D|-----------------------------------------------------------------------|
A|-----------------------------------------------------------------------|
E|-----------------------------------------------------------------------|

Guitar 3: x1
e|---------------------------------------------------------------|
B|---------------------------------------------------------------|
G|---------------------------------------------------------------|
D|----2----------------2----------------2------------------------| 
A|-0-----2--4--2----0-----2--4--2----0-----2--4--2----0--0--2--2-|
E|---------------------------------------------------------------|

e|---------------------------------------------------------------|
B|---------------------------------------------------------------|
G|---------------------------------------------------------------|
D|----2----------------2-------------------2-------------------2-| 
A|-0-----2--4--2----0-----2--4--2----0--2-----6--4--2----0--0----|
E|---------------------------------------------------------------|


[Verse 2] (I don't like it, now you're dead...)

Guitar 1: Repeat verse 1

Guitar 2: x1  Subtle difference from first verse
e|--7-7-------------7-7------------7-7-------------7---------------| 
B|------4-5-5-5---------4-5-5-5--------4-5-5-5-------4-4--4/5--7/--|
G|------4-4-4-4---------4-4-4-4--------4-4-4-4------------4--------|
D|-----------------------------------------------------------------|
A|-----------------------------------------------------------------|
E|-----------------------------------------------------------------|

e|--7-7-------------7-7------------7-7-----4------7-------------0---4----|
B|------4-5-5-5---------4-5-5-5--------4/5----------4--------0----0------|
G|------4-4-4-4---------4-4-4-4--------4-----------------1/2-----------2-|
D|-----------------------------------------------------------------------|
A|-----------------------------------------------------------------------|
E|-----------------------------------------------------------------------|

Guitar 3: Repeat verse 1

[Break] (So I reached for a borrowed fleece from my dad or from Denise...)
Listen to song for timing of when to strum this chord
e|-7-|
B|-5-|
G|-4-|
D|---|
A|---|
E|---|

[Verse 3] (I sat with you beside your bed...)
Guitar 1: Repeat verse 1 

Guitar 2: x1 
e|--7-7-------------7-7------------7-7-------------7---------------| 
B|------4-5-5-5---------4-5-5-5--------4-5-5-5-------4-4--4/5--7/--|
G|------4-4-4-4---------4-4-4-4--------4-4-4-4------------4--------|
D|-----------------------------------------------------------------|
A|-----------------------------------------------------------------|
E|-----------------------------------------------------------------|

e|--7-7-------------7-7------------7-7------------7------------|
B|------4-5-5-5---------4-5-5-5--------4-5-5-5------4--------0-|
G|------4-4-4-4---------4-4-4-4--------4-4-4-4-----------1/2---|
D|-------------------------------------------------------------|
A|-------------------------------------------------------------|
E|-------------------------------------------------------------|

Guitar 3: x1
e|---------------------------------------------------------------|
B|---------------------------------------------------------------|
G|---------------------------------------------------------------|
D|----2----------------2----------------2------------------------| 
A|-0-----2--6--7----0-----2--6--7----0-----2--6--7----0--0--2--2-|
E|---------------------------------------------------------------|

e|---------------------------------------------------------------|
B|---------------------------------------------------------------|
G|---------------------------------------------------------------|
D|----2----------------2-------------------2-------------------2-| 
A|-0-----2--6--7----0-----2--6--7----0--2-----6--4--2----0--2----|
E|---------------------------------------------------------------|


[Verse 4] (I got my pen and thought I'd write...)
No guitar



************************************

| /  Slide up

************************************

            
            
Suggest correction
Creating personal tab
Creating personal tab
You can edit any tab online and save it as your Personal.

You can edit, replace or remove any tab part or add personal notes – all changes will be seen only by you.

Personal tabs can be accessed anytime from any device, even offline.
Learn more »
comments
print report bad tab
1 comment total.
0 reply
fanny.lortie 62 Mar 15, 2017 08:14 PM

You can combine the guitar 1 and guitar 2 into one and play both at the same time.

guest
You may want to rate the tab now too:
select rating
Wanna post a correction for this tab? Suggest correction