Oops, an error
Loading. Please wait.

Robbers tab

version 4
version 4

Whole song

  • This version is more similar to how they play it live.
  • This tab is based around the live version they play not the studio version.
  • The tab version uses power cords and doesn't require a capo.
  • The bridge is different and i like it more please ... Show more

Interactive

3,436 views 30 this week
2 commentsread comments
1 2 3 4 5
x 6
add to favorites
×
Save as Personal and add changes to this tab that will be seen only by you. Learn more ›
×
You can save this tab as Personal to edit and correct it or add notes. All changes will be seen only by you. Learn more »
launch autoscroll
font size
0
reset
how to read this tab
guitar tuner
edit
Autoscroll
slow
fast
+/-
esc
set tempo
stop
Author
About this tab version
This version is more similar to how they play it live. Was this info helpful? Yes No
ROBBERS – THE 1975


[Intro]

e|----19----16-------19----16-------19----16-------19----16--|
B|-17----19-------17----19-------17----19-------17----19-----|
G|-----------------------------------------------------------| 
D|-----------------------------------------------------------| 
A|-----------------------------------------------------------|
E|-----------------------------------------------------------|


[Verse]

e|--------------------|
B|--------------------|
G|-9-9-9-9-9-9-9-9----| 
D|-9-9-9-9-9-9-9-9----| 
A|-7-7-7-7-7-7-7-7----|
E|--------------------|
PM . . . . . . . . 

It sometimes changes to this chord in the verse, listen for timing:

e|------------|
B|------------|
G|--8-8-8-----| 
D|--9-9-9-----| 
A|--7-7-7-----|
E|------------|
PM  . . . 
 

This is the lead part played live by Adam (varies by show)

e|-----------------------------------------------19~--------|
B|-12~--------5~--------12~--------17~----19~---------------|
G|----------------------------------------------------------| 
D|----------------------------------------------------------| 
A|----------------------------------------------------------|
E|----------------------------------------------------------| 

e|----------------------------------------------------------------------------|
B|-12~--------5~----7~----10~----9~--------12~--------5~----4~----5~----7~----|
G|----------------------------------------------------------------------------| 
D|----------------------------------------------------------------------------| 
A|----------------------------------------------------------------------------|
E|----------------------------------------------------------------------------| 


[Chorus]

e|----19----16-------19----16-------19----16-------19----16----------|
B|-17----19-------17----19-------17----19-------17----19-------17~---|
G|-------------------------------------------------------------------| 
D|-------------------------------------------------------------------| 
A|-------------------------------------------------------------------|
E|-------------------------------------------------------------------| 


[Verse 2] live lead

e|----------------------------------------------------------------19~-------|
B|-12~--------5~----7~--------12~--------17~--------19~---------------------|
G|--------------------------------------------------------------------------| 
D|--------------------------------------------------------------------------| 
A|--------------------------------------------------------------------------|
E|--------------------------------------------------------------------------| 

e|--------------------------------------------------------------19~---------|
B|-5~----4~----5~----7~--------12~--------17~--------19~--------------------|
G|--------------------------------------------------------------------------| 
D|--------------------------------------------------------------------------| 
A|--------------------------------------------------------------------------|
E|--------------------------------------------------------------------------| 


[Chorus]

e|----19----16-------19----16-------19----16-------19----16----------|
B|-17----19-------17----19-------17----19-------17----19-------17~---|
G|-------------------------------------------------------------------| 
D|-------------------------------------------------------------------| 
A|-------------------------------------------------------------------|
E|-------------------------------------------------------------------| 


[Bridge]

e|-5-5-5-4-4-4-4-4-------|
B|-5-5-5-5-5-5-5-5-------|
G|-----------------------| x8
D|-----------------------| 
A|-----------------------|
E|-----------------------| 

e|-4~----2~----0~-------|
B|-5~----4~----2~-------|
G|-6~----4~----2~-------| 
D|-6~----4~----2~-------| 
A|-4~----2~----0~-------|
E|----------------------| 


[Outro] 

(Adam plays this more clearly live)

e|---------------------------------------|
B|---------------------------------------|
G|---------------------------------------| x4
D|-6-6-6-6-6-6-6-6-6/2-2-2-2-2-2-2-2-----| 
A|---------------------------------------|
E|---------------------------------------| 

e|-----------------------------------------------------------------------------|
B|-----------------------------------------------------------------------------|
G|-----------------------------------------------------------------------------| 
D|-7-7-7-6-6-6-6-6----7-7-7-6-6-6-6-6----7-7-7-6-6-6-6-6----7-7-7-6-6-6-6-6----| 
A|-----------------------------------------------------------------------------|
E|-----------------------------------------------------------------------------| 

e|-----------------------------------------------------------------------------|
B|-----------------------------------------------------------------------------|
G|-----------------------------------------------------------------------------| 
D|-7-7-7-6-6-6-6-6--4-4-4-2-2-2-2-2------7-7-7-6-6-6-6-6----7-7-7-6-6-6-6-6----| 
A|-----------------------------------------------------------------------------|
E|-----------------------------------------------------------------------------| 

e|---------------------------------------|
B|---------------------------------------|
G|---------------------------------------| x4
D|-6-6-6-6-6-6-6-6-6/2-2-2-2-2-2-2-2-----| 
A|---------------------------------------|
E|---------------------------------------|


(This repeats over the top)

e|----19----19----19----19---------------|
B|-17----17----17----17------------------|
G|---------------------------------------| 
D|---------------------------------------| 
A|---------------------------------------|
E|---------------------------------------| 



            
            
Suggest correction
Creating personal tab
Creating personal tab
You can edit any tab online and save it as your Personal.

You can edit, replace or remove any tab part or add personal notes – all changes will be seen only by you.

Personal tabs can be accessed anytime from any device, even offline.
Learn more »
comments
print report bad tab
2 comments total.
+1 reply
includo 59 May 05, 2016 12:43 PM, edited at 05:09 pm

Perfect mate :)

+1 reply
kelly.vic.16 10 Mar 22, 2017 11:43 AM

awesome! been searching for the perfect one. finally. live version is awesome! thanks a ton.

guest
You may want to rate the tab now too:
select rating
Wanna post a correction for this tab? Suggest correction