Oops, an error
Loading. Please wait.
We have an official Settle Down tab made by UG professional guitarists. Check out the tab »
×

Settle Down bass

version 1
version 1

Whole song

  • Originally published by Chris Khalife on his websi... Show more

Interactive

445 views 12 this week
no commentswrite comment
1 2 3 4 5
1 last vote to show rating
add to favorites
×
Save as Personal and add changes to this tab that will be seen only by you. Learn more ›
×
You can save this tab as Personal to edit and correct it or add notes. All changes will be seen only by you. Learn more »
launch autoscroll
font size
0
reset
guitar tuner
edit
Autoscroll
slow
fast
+/-
esc
set tempo
stop
About this tab version
Originally published by Chris Khalife on his website, Chris Khalife Bass Tabs.com. Was this info helpful? Yes No
[Intro]
G|-----------------|-----------------|-----------------|-----------------|
D|-------5---------|-------7---------|-------9---------|-----------------|
A|-----------------|-----------------|-----------------|-----------------|
E|-3-------x---3---|-5-------x---5---|-7-------x---7---|-10-------10\----|

G|-----------------|-----------------|-----------------|-----------------|
D|-------5---------|-------7---------|-----------------|-----------------|
A|-----------------|-----------------|-----------------|-----------------|
E|-3-------x---3---|-5-------x---5---|-2-----2-----3---|--------/10\-----|

G|-----------------|-----------------|-----------------|-----------------|
D|-------5---------|-------7---------|-------9---------|-----------------|
A|-----------------|-----------------|-----------------|-----------------|
E|-3-------x---3---|-5-------x---5---|-7-------x---7---|-10-------10\----|

G|-----------------|-----------------|-----------------|-----------------|
D|-------2---------|-------4---------|-------5---------|-----------------|
A|-----------------|-----------------|-----------------|-----------------|
E|-0-------x---0---|-2-------x---2---|-3-------x---5---|-----------------|

[Verse 1]
G|-----------------|-----------------|-----------------|-----------------|
D|-----------------|-----------------|-----------------|-----------------|
A|-----------------|-----------------|-----------------|-----------------|
E|-----3---3-------|-3-----3---3---5-|-----5---5-------|-5-----5---7---2-|

G|-----------------|-----------------|-----------------|-----------------|
D|-----------------|-----------------|-----------------|-------9---7\----|
A|-----------------|-----------------|-----------------|-----------------|
E|-----2---2-------|-2-----2---2---7-|-----7---7-------|-5-------------3-|

G|-----------------|-----------------|-----------------|-----------------|
D|-----------------|-----------------|-----------------|-----------------|
A|-----------------|-----------------|-----------------|-----------------|
E|-----3---3-------|-3-----3---3---5-|-----5---5-------|-5-----5---5---7-|

G|-----------------|-----------------|-------------6-7-|---6---7---6-----|
D|-----------------|-----------------|-----------------|-----------------|
A|-----------------|-----------------|-----------------|-----------------|
E|-----7---7-------|-7-----7---7---9-|-----9---9-------|---------------3-|

[Pre-Chorus 1]
G|-----------------|-----------------|-----------------|-----------------|
D|-----------------|-----------------|-----------------|-----------------|
A|-----------------|-----------------|-----------------|-----------------|
E|-----3---3-------|-3-----3---3---5-|-----5---5-------|-5-----5---7---2-|

G|-----------------|-----------------|-----------------|-----------------|
D|-------4---------|-----------------|-----------------|-------9---7\----|
A|-----------------|-----------------|-----------------|-----------------|
E|-----2---2-------|-2-----2---2---7-|-----7---7-------|-5---------------|

G|-----------------|-----------------|-----------------|-----------------|
D|-----------------|-----------------|-----------------|-----------------|
A|-----------------|-----------------|-----------------|-----------------|
E|-----3---3-------|-3-----3---3---5-|-----5---5-------|-5-----5---5---2-|

G|-----------------|-----------------|-----------------|-----------------|
D|-----------------|-----------------|-----------------|-----------------|
A|-----------------|-----------------|-----------------|-----------------|
E|-----2---2-------|-2-----2---2---7-|-------------7---|-5---------------|

[Chorus 1]
G|-----------------|-----------------|-----------------|-----------------|
D|-------5---------|-------7---------|-------9---------|-----------------|
A|-----------------|-----------------|-----------------|-----------------|
E|-3-------x---3---|-5-------x---5---|-7-------x---7---|-10-------10\----|

G|-----------------|-----------------|-----------------|-----------------|
D|-------5---------|-------7---------|-----------------|-----------------|
A|-----------------|-----------------|-----------------|-----------------|
E|-3-------x---3---|-5-------x---5---|-2-----2-----3---|--------/10\-----|

G|-----------------|-----------------|-----------------|-----------------|
D|-------5---------|-------7---------|-------9---------|-----------------|
A|-----------------|-----------------|-----------------|-----------------|
E|-3-------x---3---|-5-------x---5---|-7-------x---7---|-10-------10\----|

G|-----------------|-----------------|-----------------|-----------------|
D|-------2---------|-------4---------|-------5---------|-----------------|
A|-----------------|-----------------|-----------------|-----------------|
E|-0-------x---0---|-2-------x---2---|-3-------x---5---|-----------------|

[Verse 2]
G|-----------------|-----------------|-----------------|-----------------|
D|-----------------|-----------------|-----------------|-----------------|
A|-----------------|-----------------|-----------------|-----------------|
E|-----3---3-------|-3-----3---3---5-|-----5---5-------|-5-----5---7---2-|

G|-----------------|-----------------|-----------------|-----------------|
D|-----------------|-----------------|-----------------|-------9---7\----|
A|-----------------|-----------------|-----------------|-----------------|
E|-----2---2-------|-2-----2---2---7-|-----7---7-------|-5-------------3-|

G|-----------------|-----------------|-----------------|-----------------|
D|-----------------|-----------------|-----------------|-----------------|
A|-----------------|-----------------|-----------------|-----------------|
E|-----3---3-------|-3-----3---3---5-|-----5---5-------|-5-----5---5---7-|

G|-----------------|-----------------|-------------6-7-|---6---7---6-----|
D|-----------------|-----------------|-----------------|-----------------|
A|-----------------|-----------------|-----------------|-----------------|
E|-----7---7-------|-7-----7---7---9-|-----9---9-------|---------------3-|

[Pre-Chorus 2]
G|-----------------|-----------------|-----------------|-----------------|
D|-----------------|-----------------|-----------------|-----------------|
A|-----------------|-----------------|-----------------|-----------------|
E|-----3---3-------|-3-----3---3---5-|-----5---5-------|-5-----5---7---2-|

G|-----------------|-----------------|-----------------|-----------------|
D|-------4---------|-----------------|-----------------|-------9---7\----|
A|-----------------|-----------------|-----------------|-----------------|
E|-----2---2-------|-2-----2---2---7-|-----7---7-------|-5---------------|

G|-----------------|-----------------|-----------------|-----------------|
D|-----------------|-----------------|-----------------|-----------------|
A|-----------------|-----------------|-----------------|-----------------|
E|-----3---3-------|-3-----3---3---5-|-----5---5-------|-5-----5---5---2-|

G|-----------------|-----------------|-----------------|-----------------|
D|-----------------|-----------------|-----------------|-----------------|
A|-----------------|-----------------|-----------------|-----------------|
E|-----2---2-------|-2-----2---2---7-|-------------7---|-5---------------|

[Chorus 2A]
G|-----------------|-----------------|-----------------|-----------------|
D|-------5---------|-------7---------|-------9---------|-----------------|
A|-----------------|-----------------|-----------------|-----------------|
E|-3-------x---3---|-5-------x---5---|-7-------x---7---|-10-------10\----|

G|-----------------|-----------------|-----------------|-----------------|
D|-------5---------|-------7---------|-----------------|-----------------|
A|-----------------|-----------------|-----------------|-----------------|
E|-3-------x---3---|-5-------x---5---|-2-----2-----3---|--------/10\-----|

G|-----------------|-----------------|-----------------|-----------------|
D|-------5---------|-------7---------|-------9---------|-----------------|
A|-----------------|-----------------|-----------------|-----------------|
E|-3-------x---3---|-5-------x---5---|-7-------x---7---|-10-------10\----|

G|-----------------|-----------------|-----------------|-----------------|
D|-------2---------|-------4---------|-------5---------|-----------------|
A|-----------------|-----------------|-----------------|-----------------|
E|-0-------x---0---|-2-------x---2---|-3-------x---5---|-----------------|

[Chorus 2B]
G|-----------------|-----------------|-----------------|-----------------|
D|-------5---------|-------7---------|-------9---------|-----------------|
A|-----------------|-----------------|-----------------|-----------------|
E|-3-------x---3---|-5-------x---5---|-7-------x---7---|-10-------10\----|

G|-----------------|-----------------|-----------------|-----------------|
D|-------5---------|-------7---------|-------4---------|-----------------|
A|-----------------|-----------------|-----------------|-----------------|
E|-3-------x---3---|-5-------x---5---|-2-------x---3---|--------/10\-----|

G|-----------------|-----------------|-----------------|-----------------|
D|-------5---------|-------7---------|-------9---------|-----------------|
A|-----------------|-----------------|-----------------|-----------------|
E|-3-------x---3---|-5-------x---5---|-7-------x---7---|-10-------10\----|

G|-----------------|-----------------|-----------------|-----------------|
D|-------2---------|-------4---------|-------5---------|-----------------|
A|-----------------|-----------------|-----------------|-----------------|
E|-0-------x---0---|-2-------x---2---|-3-------x---5---|-5---------------|

[Verse 3]
(Bass comes in at 2:49)
G|-----------------|-----------------|-----------------|-----------------|
G|-----------------|-----------------|-----------------|-----------------|
G|-----------------|-----------------|-----------------|-----------------|
G|-----------------|-----------------|-----------------|-10\-------------|

[Pre-Chorus 3]
G|-----------------|-----------------|-----------------|-----------------|
D|-----------------|-----------------|-----------------|-----------------|
A|-----------------|-----------------|-----------------|-----------------|
E|-----3---3-------|-3-----3---3---5-|-----5---5-------|-5-----5---7---2-|

G|-----------------|-----------------|-----------------|-----------------|
D|-----------------|-----------------|-----------------|-----------------|
A|-----------------|-----------------|-----------------|-----------------|
E|-----2---2-------|-2-----2---2---7-|-----7---7-------|-5-----7---5---3-|

G|-----------------|-----------------|-----------------|-----------------|
D|-----------------|-----------------|-----------------|-----------------|
A|-----------------|-----------------|-----------------|-----------------|
E|-----3---3-------|-3-----3---3---5-|-----5---5-------|-5-----5---5---7-|

G|-----------------|-----------------|-----------------|-----------------|
D|-----------------|-----------------|-----------------|-----------------|
A|-----------------|-----------------|-----------------|-----------------|
E|-----7---7-------|-7-----7---7---9-|-----------------|-----------------|

[Chorus 3A]
G|-----------------|-----------------|-----------------|-----------------|
D|-------5---------|-------7---------|-------9---------|-----------------|
A|-----------------|-----------------|-----------------|-----------------|
E|-3-------x---3---|-5-------x---5---|-7-------x---7---|-10-------10\----|

G|-----------------|-----------------|-----------------|-----------------|
D|-------5---------|-------7---------|-----------------|-----------------|
A|-----------------|-----------------|-----------------|-----------------|
E|-3-------x---3---|-5-------x---5---|-2-----2-----3---|--------/10\-----|

G|-----------------|-----------------|-----------------|-----------------|
D|-------5---------|-------7---------|-------9---------|-----------------|
A|-----------------|-----------------|-----------------|-----------------|
E|-3-------x---3---|-5-------x---5---|-7-------x---7---|-10-------10\----|

G|-----------------|-----------------|-----------------|-----------------|
D|-------2---------|-------4---------|-------5---------|-----------------|
A|-----------------|-----------------|-----------------|-----------------|
E|-0-------x---0---|-2-------x---2---|-3-------x---5---|-----------------|

[Chorus 3B]
G|-----------------|-----------------|-----------------|-----------------|
D|-------5---------|-------7---------|-------9---------|-----------------|
A|-----------------|-----------------|-----------------|-----------------|
E|-3-------x---3---|-5-------x---5---|-7-------x---7---|-10-------10\----|

G|-----------------|-----------------|-----------------|-----------------|
D|-------5---------|-------7---------|-------4---------|-----------------|
A|-----------------|-----------------|-----------------|-----------------|
E|-3-------x---3---|-5-------x---5---|-2-------x---3---|--------/10\-----|

G|-----------------|-----------------|-----------------|-----------------|
D|-------5---------|-------7---------|-------9---------|-----------------|
A|-----------------|-----------------|-----------------|-----------------|
E|-3-------x---3---|-5-------x---5---|-7-------x---7---|-10-------10\----|

G|-----------------|-----------------|-----------------|-----------------|
D|-------2---------|-------4---------|-------5---------|-----------------|
A|-----------------|-----------------|-----------------|-----------------|
E|-0-------x---0---|-2-------x---2---|-3-------x---5---|-5---------------|


**********************************************************

| / = Slide up
| \ = Slide down
\ x = Muted note

**********************************************************

            
            
Suggest correction
Creating personal tab
Creating personal tab
You can edit any tab online and save it as your Personal.

You can edit, replace or remove any tab part or add personal notes – all changes will be seen only by you.

Personal tabs can be accessed anytime from any device, even offline.
Learn more »
Give kudos to tab author, rate the tab!
1 2 3 4 5
comments
print report bad tab
guest
You may want to rate the tab now too:
select rating
Wanna post a correction for this tab? Suggest correction