Oops, an error
Loading. Please wait.

Ugh tab

version 1
version 1

Whole song

Interactive

16,159 views 48 this week
1 commentread comment
1 2 3 4 5
x 10
add to favorites
×
Save as Personal and add changes to this tab that will be seen only by you. Learn more ›
×
You can save this tab as Personal to edit and correct it or add notes. All changes will be seen only by you. Learn more »
launch autoscroll
font size
0
reset
how to read this tab
guitar tuner
edit
Autoscroll
slow
fast
+/-
esc
set tempo
stop
Author
-------------------------------------------------------------------------------
                                 // U G H ! //

                                   The 1975
-------------------------------------------------------------------------------

Tabbed by: mileskane

Tuning: Standard (EADGBe)

[Intro]

e|---------------------------------------------------------------------------|
B|---------------------------------------------------------------------------|
G|---------------------------------------------------------------------------|
D|-8h10p8-8h10p8-8h10p8-8h10p8-8h10p8-----------------8----------------------|
A|------------------------------------8-10--------6h8---8-6------------------|
E|---------------------------------------------------------------------------|

e|---------------------------------------------------------------------------|
B|---------------------------------------------------------------------------|
G|---------------------------------------------------------------------------|
D|-8h10p8-----------------8--------------------------------------------------|
A|--------8-10--------6h8---8-6----------------------------------------------|
E|---------------------------------------------------------------------------|


[Verse]

e|---------------------------------------------------------------------------|
B|---------------------------------------------------------------------------|
G|---------------------------------------------------------------------------|
D|-8h10p8-8h10p8-8h10p8-----------------8------------------------------------|
A|----------------------8-10--------6h8---8-6--------------------------------|
E|---------------------------------------------------------------------------|

e|---------------------------------------------------------------------------|
B|---------------------------------------------------------------------------|
G|---------------------------------------------------------------------------|
D|-8h10p8-----------------8--------------------------------------------------|
A|--------8-10--------6h8---8-6----------------------------------------------|
E|---------------------------------------------------------------------------|

e|---------------------------------------------------------------------------|
B|---------------------------------------------------------------------------|
G|---------------------------------------------------------------------------|
D|-8h10p8-----------------8--------------------------------------------------|
A|--------8-10--------6h8---8-6----------------------------------------------|
E|---------------------------------------------------------------------------|

e|---------------------------------------------------------------------------|
B|---------------------------------------------------------------------------|
G|---------------------------------------------------------------------------|
D|-8h10p8-----------------8--------------------------------------------------|
A|--------8-10--------6h8---8-6--6h8-8-6-------------------------------------|
E|---------------------------------------------------------------------------|

(Verse continues with funkier version of riff)


[Chorus]

e|---------------------------------------------------------------------------|
B|---------------------------------------------------------------------------|
G|---------------------------------------------------------------------------|
D|-8h10p8---------------8----------------------------------------------------|
A|--------8-10------6h8---8-6------------------------------------------------|
E|---------------------------------------------------------------------------|

e|---------------------------------------------------------------------------|
B|---------------------------------------------------------------------------|
G|---------------------------------------------------------------------------|
D|-8h10p8---------------8----------------------------------------------------|
A|--------8-10------6h8---8-6--6h8-8-6---------------------------------------|
E|---------------------------------------------------------------------------|

e|---------------------------------------------------------------------------|
B|---------------------------------------------------------------------------|
G|---------------------------------------------------------------------------|
D|-8h10p8---------------8----------------------------------------------------|
A|--------8-10------6h8---8-6------------------------------------------------|
E|---------------------------------------------------------------------------|

e|---------------------------------------------------------------------------|
B|---------------------------------------------------------------------------|
G|---------------------------------------------------------------------------|
D|-8h10p8---------------8----------------------------------------------------|
A|--------8-10------6h8---8-6------------------------------------------------|
E|---------------------------------------------------------------------------|


[Verse]

e|---------------------------------------------------------------------------|
B|---------------------------------------------------------------------------|
G|---------------------------------------------------------------------------|
D|-8h10p8-8h10p8-8h10p8-8h10p8-8h10p8-----------------8----------------------|
A|------------------------------------8-10--------6h8---8-6------------------|
E|---------------------------------------------------------------------------|

e|---------------------------------------------------------------------------|
B|---------------------------------------------------------------------------|
G|---------------------------------------------------------------------------|
D|-8h10p8-----------------8--------------------------------------------------|
A|--------8-10--------6h8---8-6----------------------------------------------|
E|---------------------------------------------------------------------------|

e|---------------------------------------------------------------------------|
B|---------------------------------------------------------------------------|
G|---------------------------------------------------------------------------|
D|-8h10p8-----------------8--------------------------------------------------|
A|--------8-10--------6h8---8-6----------------------------------------------|
E|---------------------------------------------------------------------------|

e|---------------------------------------------------------------------------|
B|---------------------------------------------------------------------------|
G|---------------------------------------------------------------------------|
D|-8h10p8--------------------------------------------------------------------|
A|--------8-10---------------------------------------------------------------|
E|---------------------------------------------------------------------------|


[Chorus]

e|---------------------------------------------------------------------------|
B|---------------------------------------------------------------------------|
G|---------------------------------------------------------------------------|
D|----------------------8----------------------------------------------------|
A|------------------6h8---8-6------------------------------------------------|
E|---------------------------------------------------------------------------|

e|---------------------------------------------------------------------------|
B|---------------------------------------------------------------------------|
G|---------------------------------------------------------------------------|
D|-8h10p8---------------8----------------------------------------------------|
A|--------8-10------6h8---8-6--6h8-8-6---------------------------------------|
E|---------------------------------------------------------------------------|

e|---------------------------------------------------------------------------|
B|---------------------------------------------------------------------------|
G|---------------------------------------------------------------------------|
D|-8h10p8---------------8----------------------------------------------------|
A|--------8-10------6h8---8-6------------------------------------------------|
E|---------------------------------------------------------------------------|

e|---------------------------------------------------------------------------|
B|---------------------------------------------------------------------------|
G|---------------------------------------------------------------------------|
D|-8h10p8---------------8----------------------------------------------------|
A|--------8-10------6h8---8-6------------------------------------------------|
E|---------------------------------------------------------------------------|


[Bridge]

e|---------------------------------------------------------------------------|
B|---------------------------------------------------------------------------|
G|----------12-10----------8-10----12-8------8-7--8-10-----------------------|
D|----------------13-12-10--------------10----------------8-10---------------|
A|-3--6-3----------------------------------------------10--------------------|
E|---------------------------------------------------------------------------|

e|---------------------------------------------------------------------------|
B|---------------------------------------------------------------------------|
G|------------12-10-------8-10----12-8------8-7--8-10------------------------|
D|------------------13-10--------------10----------------8-10----------------|
A|-6-3-6--3-------------------------------------------10---------------------|
E|---------------------------------------------------------------------------|

e|---------------------------------------------------------------------------|
B|---------------------------------------------------------------------------|
G|------------12-10-------8-10----12-8------8-7--8-8-------------------------|
D|------------------13-10--------------10------------------------------------|
A|-6-3-6--3------------------------------------------------------------------|
E|---------------------------------------------------------------------------|


[Chorus]

e|---------------------------------------------------------------------------|
B|---------------------------------------------------------------------------|
G|---------------------------------------------------------------------------|
D|-8h10p8---------------8----------------------------------------------------|
A|--------8-10------6h8---8-6------------------------------------------------|
E|---------------------------------------------------------------------------|

e|---------------------------------------------------------------------------|
B|---------------------------------------------------------------------------|
G|---------------------------------------------------------------------------|
D|-8h10p8---------------8----------------------------------------------------|
A|--------8-10------6h8---8-6--6h8-8-6---------------------------------------|
E|---------------------------------------------------------------------------|

e|---------------------------------------------------------------------------|
B|---------------------------------------------------------------------------|
G|---------------------------------------------------------------------------|
D|-8h10p8---------------8----------------------------------------------------|
A|--------8-10------6h8---8-6------------------------------------------------|
E|---------------------------------------------------------------------------|

e|---------------------------------------------------------------------------|
B|---------------------------------------------------------------------------|
G|---------------------------------------------------------------------------|
D|-8h10p8---------------8----------------------------------------------------|
A|--------8-10------6h8---8-6------------------------------------------------|
E|---------------------------------------------------------------------------|


[Outro]

e|---------------------------------------------------------------------------|
B|---------------------------------------------------------------------------|
G|---------------------------------------------------------------------------|
D|-8h10p8---------------8----------------------------------------------------|
A|--------8-10------6h8---8-6------------------------------------------------|
E|---------------------------------------------------------------------------|

e|---------------------------------------------------------------------------|
B|---------------------------------------------------------------------------|
G|---------------------------------------------------------------------------|
D|-8h10p8---------------8----------------------------------------------------|
A|--------8-10------6h8---8-6--6h8-8-6---------------------------------------|
E|---------------------------------------------------------------------------|

e|---------------------------------------------------------------------------|
B|---------------------------------------------------------------------------|
G|---------------------------------------------------------------------------|
D|-8h10p8---------------8----------------------------------------------------|
A|--------8-10------6h8---8-6------------------------------------------------|
E|---------------------------------------------------------------------------|

e|---------------------------------------------------------------------------|
B|---------------------------------------------------------------------------|
G|---------------------------------------------------------------------------|
D|-8h10p8---------------8----------------------------------------------------|
A|--------8-10------6h8---8-6------------------------------------------------|
E|---------------------------------------------------------------------------|


************************************

| h  Hammer-on
| p  Pull-off

************************************

            
            
Suggest correction
Creating personal tab
Creating personal tab
You can edit any tab online and save it as your Personal.

You can edit, replace or remove any tab part or add personal notes – all changes will be seen only by you.

Personal tabs can be accessed anytime from any device, even offline.
Learn more »
comments
print report bad tab
1 comment total.
0 reply
charlotte.basham 20 Dec 30, 2015 03:23 AM

great tab bby

guest
You may want to rate the tab now too:
select rating
Wanna post a correction for this tab? Suggest correction