Oops, an error
Loading. Please wait.

Raining Sunshine bass

34 views 1 this week
no commentswrite comment
1 2 3 4 5
3 more votes to show rating
add to favorites
×
Save as Personal and add changes to this tab that will be seen only by you. Learn more ›
×
You can save this tab as Personal to edit and correct it or add notes. All changes will be seen only by you. Learn more »
launch autoscroll
font size
0
reset
guitar tuner
edit
Autoscroll
slow
fast
+/-
esc
set tempo
stop
Author
Difficulty
Tabbed by: 6METAL6BASSIST6
E-mail: petergriffinav@gmail.com

Tuning: EADG

G|----------------------------------------------------------------|
D|9-------------------------------8-------------------------------|
A|----------------------------------------------------------------|
E|----------------------------------------------------------------|

G|----------------------------------------------------------------|
D|7---------------------------------------------------------------|
A|--------------------------------7-------------------------------|
E|----------------------------------------------------------------|

G|----------------------------------------------------------------|
D|----------------------------------------------------------------|
A|9-----------9---9-----------9---9-----------9---9-------9-------|
E|----------------------------------------------------------------|

0:12

G|----------------------------------------------------------------|
D|9-----------9-------------------9-----------9-------------------|
A|----------------9-------------------------------9---------------|
E|----------------------------------------------------------------|

G|----------------------------------------------------------------|
D|9-----------9-----------9---------------------------------------|
A|----------------9---------------7-----------7-----------7-------|
E|------------------------------------------------7---------------|

G|----------------------------------------------------------------|
D|----------------------------------------------------------------|
A|9-----------9---9-----------9---9---9-------9---9-------9-------|
E|----------------------------------------------------------------|

0:22

G|----------------------------------------------------------------|
D|9-----------9-------------------9-----------9-------------------|
A|----------------9-------------------------------9---------------|
E|----------------------------------------------------------------|

G|----------------------------------------------------------------|
D|9-----------9---------------------------------------------------|
A|----------------9---------------7-----------7-----------7-------|
E|------------------------------------------------7---------------|

G|----------------------------------------------------------------|
D|----------------------------------------------------11------8---|
A|9-----------9---9---------------9-----------9---9-------9-------|
E|----------------------------------------------------------------|

G|----------------------------------------------------------------|
D|9-----------9-------------------9-----------9-------------------|
A|----------------9-------------------------------9---------------|
E|----------------------------------------------------------------|

G|----------------------------------------------------------------|
D|9-----------9---------------------------------------------------|
A|----------------9---------------7-----------7-----------7-------|
E|------------------------------------------------7---------------|

G|----------------------------------------------------------------|
D|----------------------------------------------------------------|
A|9-----------9---9-----------9---9---9-------9---9---9-------8---|
E|--------------------------------------------------------9-------|

G|----------------------------------------------------------------|
D|----------------------------------------------------------------|
A|9-----------9---9-----------9---9---9-------9---9---9---9---10--|
E|----------------------------------------------------------------|

0:44

G|----------------------------------------------------------------|
D|------------------------------------------------11--9-----------|
A|11----------11--11------11------------------------------11------|
E|--------------------11------11--9---------------------------11--|

G|----------------------------------------------------------------|
D|------------------------------------------------11--9-----------|
A|11----------11----------11------------------11----------11------|
E|----------------11----------11--9---------------------------11--|

G|----------------------------------------------------------------|
D|------------------------------------------------11--9-----------|
A|11----------11----------11------------------------------11------|
E|----------------11----------11--9---------------------------11--|

G|----------------------------------------------------------------|
D|----------------------------------------------------------------|
A|----------------------------11--------------11----------11------|
E|9-------------------------------9---------------9---9-----------|

G|----------------------------------------------------------------|
D|----------------------------------------------------------------|
A|----------------------------11----------11----------11----------|
E|9-----------9---9---------------9---9-----------9-------9-------|

0:58

G|----------------------------------------------------------------|
D|------------9---------------------------------------------------| x6
A|9-----------------------7-------------------7---7---------------|
E|--------------------------------------------------------7-------|

G|----------------------------------------------------------------|
D|----------------------------------------------------------------| x2
A|9-----------9-----------9-------------------9---9---------------|
E|--------------------------------------------------------9-------|

G|----------------------------------------------------------------|
D|------------------------------------------------7-------8-------|
A|----------------------------------------9-----------------------|
E|2---------------------------------------------------------------|

1:25

G|----------------------------------------------------------------|
D|9-----------9-------------------9-----------9-------------------|
A|----------------9-------------------------------9---------------|
E|----------------------------------------------------------------|

G|----------------------------------------------------------------|
D|9-----------9---------------------------------------------------|
A|----------------9---------------7-----------7-----------7-------|
E|------------------------------------------------7---------------|

G|----------------------------------------------------------------|
D|----------------------------------------------------11------8---|
A|9-----------9---9---------------9-----------9---9-------9-------|
E|----------------------------------------------------------------|

G|----------------------------------------------------------------|
D|9-----------9-------------------9-----------9-------------------|
A|----------------9-------------------------------9---------------|
E|----------------------------------------------------------------|

G|----------------------------------------------------------------|
D|9-----------9---------------------------------------------------|
A|----------------9---------------7-----------7-----------7-------|
E|------------------------------------------------7---------------|

G|----------------------------------------------------------------|
D|----------------------------------------------------------------|
A|9-----------9---9-----------9---9---9-------9---9---9-------8---|
E|--------------------------------------------------------9-------|

G|----------------------------------------------------------------|
D|----------------------------------------------------------------|
A|9-----------9---9-----------9---9-----------9---9---9---9---10--|
E|----------------------------------------------------------------|

1:46

G|----------------------------------------------------------------|
D|------------------------------------------------11--9-----------|
A|11----------11----------11------------------------------11------|
E|----------------11--11------11--9---------------------------11--|

G|----------------------------------------------------------------|
D|------------------------------------------------11--9-----------|
A|11----------11----------11------------------------------11------|
E|----------------11----------11--9---------------------------11--|

G|----------------------------------------------------------------|
D|------------------------------------------------11--9-----------|
A|11----------11----------11------------------------------11------|
E|----------------11----------11--9---------------------------11--|

G|----------------------------------------------------------------|
D|----------------------------------------------------------------|
A|------------------------------------------------11--------------|
E|9-----------9---------------9---9-----------9-----------9---9---|

G|----------------------------------------------------------------|
D|----------------------------------------------------------------|
A|------------11--------------11----------------------------------|
E|9---------------9---------------9-------------------------------|

2:00

G|----------------------------------------------------------------|
D|------------9---------------------------------------------------| x6
A|9-----------------------7-------------------7---7---------------|
E|--------------------------------------------------------7-------|

G|----------------------------------------------------------------|
D|----------------------------------------------------------------| x2
A|9-----------9-----------9-------------------9---9---------------|
E|--------------------------------------------------------9-------|

G|----------------------------------------------------------------|
D|------------9---------------------------------------------------| x3
A|7-----------------------9---------------------------------------|
E|----------------------------------------------------------------|

            
            
Suggest correction
Creating personal tab
Creating personal tab
You can edit any tab online and save it as your Personal.

You can edit, replace or remove any tab part or add personal notes – all changes will be seen only by you.

Personal tabs can be accessed anytime from any device, even offline.
Learn more »
Give kudos to tab author, rate the tab!
1 2 3 4 5
comments
print report bad tab
guest
You may want to rate the tab now too:
select rating
Wanna post a correction for this tab? Suggest correction