Oops, an error
Loading. Please wait.

Heaven Ablaze tab

version 1
version 1

Whole song

Interactive

1,399 views 1 this week
no commentswrite comment
1 2 3 4 5
2 more votes to show rating
add to favorites
×
Save as Personal and add changes to this tab that will be seen only by you. Learn more ›
×
You can save this tab as Personal to edit and correct it or add notes. All changes will be seen only by you. Learn more »
launch autoscroll
font size
0
reset
how to read this tab
guitar tuner
edit
Autoscroll
slow
fast
+/-
esc
set tempo
stop
Great song, don't know why I can't find a solid tab for it
but, anyways, here's what I've managed to work out so far
timing's gonna be off, this isnt sheet music ppl, dont crawl up my ass about it cuz if u 
the song and cant play along with it to figure out the timing
thats not my fault
thanks for feedback, all your comments and corrections will be taken seriously

Tuned in drop C -->C G C F A D
versus standard -->E A D G B e
just so in case you didnt know...


Intro Riffage:(Also, Chorus)
note:second time, go directly to verse riff
e|---------------------------------------------------------------------------|
B|---------------------------------------------------------------------------|
G|---------------------------------------------------------------------------|
D|----------------------------------------------------15-13-12---------------|
A|------12-10---15---13---12---13h1513/12------12-10-------------------------|
E|-0000-------0----0----0----0-------------0000------0--0--0-----------------|
  PM---|      PM   PM   PM   PM            PM--|     PM PM PM
e|-----------------------------------------------------------------------------|
B|-----------------------------------------------------------------------------|
G|-----------------------------------------------------------------------------|
D|------------------------------------------------------15-13-12---------------|x2
A|------12-10---15---13---12---13h15p13/12----15-13-12-------------------------|
E|-0000-------0----0----0----0------------000--0--0---000--0--0----------------|
PM-----|      PM   PM   PM   PM           PM-| PM PM  PM-----------------------| PM PM


Verse Riff:
For the chords, if u know this song u know the picking  _________________
pattern so im just writing the chords down             |2nd & 4th
e|-----------------------------------------------------------------------------|
B|-----------------------------------------------------------------------------|
G|-----------------------------------7-8-5-7-----------8-10-7-8----------------|
D|-5-------------8------------5--------------8-10-7-8-----------10-12-8-10-----|x4
A|-5-------------6------------5------------------------------------------------|
E|-5--------------------------5------------------------------------------------|
                                 trem. lead------------------------------------|

Pre-Chorus riff:
sorry, no lead yet
still pretty rough on some parts of this riff

e|---------------------------------------------------------------------------|
B|---------------------------------------------------------------------------|
G|-------------------7---------10--------------------------------------------|
D|---7-8--10-8--7-8---8--8-10----8--78--8h10p8-7-----------------------------|
A|-55-5-55--5-55-5-55--66-6--66---66--66-------------------------------------|
E|---------------------------------------------------------------------------|

Alright, I'll update this as I go
as I said, comments and correction/suggestions
are welcome

peace, love, and rawk
--PatrickFuckingSzwaja

            
            
Suggest correction
Creating personal tab
Creating personal tab
You can edit any tab online and save it as your Personal.

You can edit, replace or remove any tab part or add personal notes – all changes will be seen only by you.

Personal tabs can be accessed anytime from any device, even offline.
Learn more »
Give kudos to tab author, rate the tab!
1 2 3 4 5
comments
print report bad tab
guest
You may want to rate the tab now too:
select rating
Wanna post a correction for this tab? Suggest correction