Oops, an error
Loading. Please wait.

4X4 intro tab

version 1
version 1

Intro

Whole song

3,386 views 1 this week
4 commentsread comments
1 2 3 4 5
3 more votes to show rating
add to favorites
×
Save as Personal and add changes to this tab that will be seen only by you. Learn more ›
×
You can save this tab as Personal to edit and correct it or add notes. All changes will be seen only by you. Learn more »
launch autoscroll
font size
0
reset
how to read this tab
guitar tuner
edit
Autoscroll
slow
fast
+/-
esc
set tempo
stop
I'll try to get the rest up when I can

IMPORTANT= 
tuning is DROP G!!!!
DROP G!!!!!!!!!!!!!!

|-----------------------------------------------|
|-----------------------------------------------|
|-----------------------------------------------|
|-----------------------------------------------|
|---7---3-4-1-----7---3-4-1---------------------|
|---7---3-4-1-----7---3-4-1-00-1-00-3-1-0-1-----|
                            **   **      

|-----------------------------------------------|
|-----------------------------------------------|
|-----------------------------------------------|
|-----------------------------------------------|
|--------3-4-1-----7---3-4-1--------------------|
|---7b---3-4-1-----7---3-4-1--00-1p0-00-3-------|
                              **     **


All I need is the solo but I'm not gonna put the rest up so please be patient I'm almost done.

P.S. I am probably 3/4 done tabbing The Acacia Strain's song "Demolishor", so expect that soon.

Thanx

            
            
Suggest correction
Creating personal tab
Creating personal tab
You can edit any tab online and save it as your Personal.

You can edit, replace or remove any tab part or add personal notes – all changes will be seen only by you.

Personal tabs can be accessed anytime from any device, even offline.
Learn more »
Give kudos to tab author, rate the tab!
1 2 3 4 5
comments
print report bad tab
4 comments total. Showing first comments.
0 reply
Tafka 518 Apr 24, 2008 07:34 AM

Make a GP tab out of it too, please.

0 reply
lpguitarplayer3 307 Sep 10, 2008 01:10 PM

I'm pretty sure you can play this in drop A too....cuz thats what I'm tuned in and it sounds right

0 reply
lpguitarplayer3 307 Sep 15, 2008 09:06 AM

nevermind about that lol...I was in drop g all along haha

guest
You may want to rate the tab now too:
select rating
Wanna post a correction for this tab? Suggest correction