Oops, an error
Loading. Please wait.

Summer Hair Forever Young bass

version 2
version 2

Whole song

Interactive

1,517 views 3 this week
no commentswrite comment
1 2 3 4 5
2 more votes to show rating
add to favorites
×
Save as Personal and add changes to this tab that will be seen only by you. Learn more ›
×
You can save this tab as Personal to edit and correct it or add notes. All changes will be seen only by you. Learn more »
launch autoscroll
font size
0
reset
guitar tuner
edit
Autoscroll
slow
fast
+/-
esc
set tempo
stop
-------------------------------------------------------------------------------
	        Summer Hair Forever Young - The Academy Is...
-------------------------------------------------------------------------------

Tabbed by: omar


Tuning: standard


G----------------------------------------------------------------------------------|
D----------------------------------------------------------------------------------|
A-5-5-5-5-5-5----------------------------------------------------------------------|
E-----------------7-7-7-7-7-7---7-2-2-2-2-2-2---2-2-2-2-2-2-2---2------------------|


-------------------------------------------------------------------------------|
-------------------------------------------------------------------------------|
-5-5-5-5-5-5-------------------------------------------------------------------|
-----------------7-7-7-7-7-7---7-2-2-2-2-2-2---2-2-2-2---x-x-3-----------------|

-----------------------------------------------------------------------------------|
-----------------------------------------------------------------------------------|
-5-5-5-5-5-5-5---------------------------------------------------------------------|
-----------------7-7-7-7-7-7-7-7-2-2-2-2-2-2-2-2-2-2-2-2-2-2-2---------------------|


------------------------------------------------------------------------------------|
------------------------------------------------------------------------------------|
-5-5-5-5-5-5-5----------------------------------------------------------------------|
-----------------7-7-7-7-7-7-7-7-2-2-2-2-2-2-2-2-2-2-2-2-2-2-3-3--------------------|


-----------------------------------------------------------------------------------|
-----------------------------------------------------------------------------------|
-5-5-5-5-5-5-5-5-------------------------------------------------------------------|
-----------------7-7-7-7-7-7-7-7-2-2-2-2-2-2-2-2-2-2-2-2-2-2-2---------------------|


----------------------------------|
----------------------------------|
-5~-------------------------------|
----------------5~----------------|


----------------------------------------------------------------------------------|
----------------------------------------------------------------------------------|
-5-5-5-5-5-5-5-5-5-5-5-5-5--------------------------------------------------------|
---------------------------------3-3-3-3-3-3-3-3-3-3-3-3-3-3-3-3-7-7-7-7-7-7-7-7--|


----------------------------------------------------------------|
----------------------------------------------------------------|
----------------------------------------------------------------|
-5-5-5-5-5-5-5-5-3-3-3-3-3-3-3-3-3-3-3-3-3-3-3-3----------------|

----------------------------------------------------------------------------------|
----------------------------------------------------------------------------------|
-5-5-5-5-5-5-5-5-5-5-5-5-5--------------------------------------------------------|
---------------------------------3-3-3-3-3-3-3-3-3-3-3-3-3-3-3-3-7-7-7-7-7-7-7-7--|


----------------------------------------------------------------|
----------------------------------------------------------------|
----------------------------------------------------------------|
-5-5-5-5-5-5-5-5-3-3-3-3-3-3-3-3-0-0-0-0-0-0-0-0----------------|

--------------------------------------------------------------------------|
--------------------------------------------------------------------------|
-5-5-5-5-5-5---5----------------------------------------------------------|
-------------------7-7-7-7-7---7-2-2-2-2-2-2---2-2-2-2-x-x-3\-------------|


-----------------------------------------------------------------------------------|
-----------------------------------------------------------------------------------|
-5-5-5-5-5-5-5---------------------------------------------------------------------|
-----------------7-7-7-7-7-7-7-7-2-2-2-2-2-2-2-2-2-2-2-2-2-2-2---------------------|


------------------------------------------------------------------------------------|
------------------------------------------------------------------------------------|
-5-5-5-5-5-5-5----------------------------------------------------------------------|
-----------------7-7-7-7-7-7-7-7-2-2-2-2-2-2-2-2-2-2-2-2-2-2-3-3--------------------|


-----------------------------------------------------------------------------------|
-----------------------------------------------------------------------------------|
-5-5-5-5-5-5-5---------------------------------------------------------------------|
-----------------7-7-7-7-7-7-7-7-2-2-2-2-2-2-2-2-2-2-2-2-2-2-2---------------------|


----------------------------------|
----------------------------------|
-5~-------------------------------|
----------------5~----------------|


----------------------------------------------------------------------------------|
----------------------------------------------------------------------------------|
-5-5-5-5-5-5-5-5-5-5-5-5-5--------------------------------------------------------|
---------------------------------3-3-3-3-3-3-3-3-3-3-3-3-3-3-3-3-7-7-7-7-7-7-7-7--|


----------------------------------------------------------------|
----------------------------------------------------------------|
----------------------------------------------------------------|
-5-5-5-5-5-5-5-5-3-3-3-3-3-3-3-3-3-3-3-3-3-3-3-3----------------|


----------------------------------------------------------------------------------|
----------------------------------------------------------------------------------|
-5-5-5-5-5-5-5-5-5-5-5-5-5--------------------------------------------------------|
---------------------------------3-3-3-3-3-3-3-3-3-3-3-3-3-3-3-3-7-7-7-7-7-7-7-7--|


----------------------------------------------------------------|
----------------------------------------------------------------|
----------------------------------------------------------------|
-5-5-5-5-5-5-5-5-3-3-3-3-3-3-3-3-0-0-0-0-0-0-0-0----------------|


--------------------------------------------|
--------------------------------------------|
-5-5-5-5-5-5-5-5-5-5-5-5-5-5-5-5------------|
--------------------------------------------|


-------------------------------------------|
-------------------------------------------|
-------------------------------------------|
-3-3-3-3-3-3-3-3-7-7-7-7-7-7-7-7-----------|


-------------------------------------------------------------------------------|
-------------------------------------------------------------------------------|
-5-5-5-5-5-5-5-----------------------------------------------------------------|
-----------------5-5-5-5-5-5-5-5-7-7-7-7-7-7-7-7-3-3-3-3-3-3-3-3---------------|

--------------------------------------------------------------------------------|
--------------------------------------------------------------------------------|
-5-5-5-5-5-5-5------------------------------------------------------------------|
-----------------5-5-5-5-5-5-5-5-3-3-3-3-3-3-3-3-7-7-7-7-7-7-7-7----------------|

--------------------------------------------------------------------------------|
--------------------------------------------------------------------------------|
-5-5-5-5-5-5-5------------------------------------------------------------------|
-----------------5-5-5-5-5-5-5-5-7-7-7-7-7-7-7-7-3-3-3-3-3-3-3-3----------------|

---------------------------------------|
---------------------------------------|
-5-5-5-5-5-5-5-------------------------|
-----------------5-5-5-5-5-5-5-5-------|


-----------------------------|
-----------------------------|
-5---------------------------|
-----------------------------|


----------------------------------------------------------------------------------|
----------------------------------------------------------------------------------|
-5-5-5-5-5-5-5-5-5-5-5-5-5--------------------------------------------------------|
---------------------------------3-3-3-3-3-3-3-3-3-3-3-3-3-3-3-3-7-7-7-7-7-7-7-7--|


----------------------------------------------------------------|
----------------------------------------------------------------|
----------------------------------------------------------------|
-5-5-5-5-5-5-5-5-3-3-3-3-3-3-3-3-3-3-3-3-3-3-3-3----------------|


----------------------------------------------------------------------------------|
----------------------------------------------------------------------------------|
-5-5-5-5-5-5-5-5-5-5-5-5-5--------------------------------------------------------|
---------------------------------3-3-3-3-3-3-3-3-3-3-3-3-3-3-3-3-7-7-7-7-7-7-7-7--|


----------------------------------------------------------------|
----------------------------------------------------------------|
----------------------------------------------------------------|
-5-5-5-5-5-5-5-5-3-3-3-3-3-3-3-3-0-0-0-0-0-0-0-0----------------|


----------------------------------------------------------------------------------|
----------------------------------------------------------------------------------|
-5-5-5-5-5-5----------------------------------------------------------------------|
-----------------7-7-7-7-7-7---7-2-2-2-2-2-2---2-2-2-2-2-2-2---2------------------|


-------------------------------------------------------------------------------|
-------------------------------------------------------------------------------|
-5-5-5-5-5-5-------------------------------------------------------------------|
-----------------7-7-7-7-7-7---7-2-2-2-2-2-2---2-2-2-2---x-x-3-----------------|


-------------|
-------------|
-5~----------|
-------------|

| /  slide up
| \  slide down
| h  hammer-on
| p  pull-off
| ~  vibrato
| +  harmonic
| x  Mute note
| b  Bend note

            
            
Suggest correction
Creating personal tab
Creating personal tab
You can edit any tab online and save it as your Personal.

You can edit, replace or remove any tab part or add personal notes – all changes will be seen only by you.

Personal tabs can be accessed anytime from any device, even offline.
Learn more »
Give kudos to tab author, rate the tab!
1 2 3 4 5
comments
print report bad tab
guest
Wanna post a correction for this tab? Suggest correction