Oops, an error
Loading. Please wait.

You Might Have Noticed bass

499 views 1 this week
no commentswrite comment
1 2 3 4 5
x 4
add to favorites
×
Save as Personal and add changes to this tab that will be seen only by you. Learn more ›
×
You can save this tab as Personal to edit and correct it or add notes. All changes will be seen only by you. Learn more »
launch autoscroll
font size
0
reset
guitar tuner
edit
Autoscroll
slow
fast
+/-
esc
set tempo
stop
Author
Difficulty
Song: You Might Have Noticed
Album: Santi
Artist: The Academy Is...

Ok i took must of this from drunkndrumin's tab for the guitar so im giving him credit 
most of the song questions/suggestions email gmann311@yahoo.com


(Verse)- Guitar untill "The beast within..."
G-----7--7h9-----7---7h9-------------------------------------|
D---9--9-------9---9-----------------------------------------|
A-7----------7-----------------------------------------------|
E------------------------55-3h5-5/8-888----------------------|

(Pre-Chorus) listen for timing
G------------------------------------------------------------|
D------------------------------------------------------------|
A------------------------------------------------------------|
E-88888888-555555555-88888888-55555555-----------------------|

(Chorus)
G------------------------------------------------------------|
D------------------------------------------------------------|
A------------------------------------------------------------|
E-88888888-55555555-33333333-22222222------------------------|

(Bridge)
G-7h9-7h9-----------|
D-------------------|
A-------------------|
E-------------------|


G------------------------------------------------------------|
D------------------------------------------------------------|
A------------------------------------------------------------|
E-33333333-22222222-555555555555555--------------------------|

(Outro)
G--------------------------------------I-----7---7h9--|
D--------------------------------------I---9---9------|
A--------------------------------------I-7------------|  this part x 4
E-88888888-555555555-88888888-55555555-I--------------|

I believe that is all again any questions/comments email me or pm

            
            
Suggest correction
Creating personal tab
Creating personal tab
You can edit any tab online and save it as your Personal.

You can edit, replace or remove any tab part or add personal notes – all changes will be seen only by you.

Personal tabs can be accessed anytime from any device, even offline.
Learn more »
comments
print report bad tab
guest
You may want to rate the tab now too:
select rating
Wanna post a correction for this tab? Suggest correction