Oops, an error
Loading. Please wait.

Myspace Girl tab

version 1
version 1

Whole song

8,127 views 1 this week
3 commentsread comments
1 2 3 4 5
x 4
add to favorites
×
Save as Personal and add changes to this tab that will be seen only by you. Learn more ›
×
You can save this tab as Personal to edit and correct it or add notes. All changes will be seen only by you. Learn more »
launch autoscroll
font size
0
reset
how to read this tab
guitar tuner
edit
Autoscroll
slow
fast
+/-
esc
set tempo
stop
Author
Difficulty
UPDATE: I changed the chorus. I'd like to thank ScolloP for pointing that out. thx man!

Myspace Girl
The Afters

Intro and verse:
e|--------------------------------|
B|--------------------------------|
G|--------------------------------|
D|-444-88-999-11-11---------------|
A|-444-88-999-11-11---------------|
E|-222-66-777-9--9----------------|

Chorus:
e|-------------------------|
B|-------------------------|
G|-------------------------|
D|-99-44-11-11-11-11-------|
A|-99-44-11-11-11-11-------|
E|-77-22-9--9--9--9--------| x2

e|-------------------------|
B|-------------------------|
G|-------------------------|
D|-99-11-11-13-13-13-13----|
A|-99-11-11-13-13-13-13----|
E|-77-9--9--11-11-11-11----|

e|-------------------------|
B|-------------------------|
G|-------------------------|
D|-6666--9-----------------|
A|-6666--9-----------------|
E|-4444--7-----------------|

Verse 2 is the same

Chorus 2 is the same

Then do verse rift

Then chorusx2

Then verse rift again and thats it.

            
            
Suggest correction
Creating personal tab
Creating personal tab
You can edit any tab online and save it as your Personal.

You can edit, replace or remove any tab part or add personal notes – all changes will be seen only by you.

Personal tabs can be accessed anytime from any device, even offline.
Learn more »
comments
print report bad tab
3 comments total.
+2 reply
ScolloP 20 Mar 20, 2008 03:58 AM

Verse is fine however chorus should be:

e|-------------------------|
B|-------------------------|
G|-------------------------|
D|-99-44-11-11-11-11-------|
A|-99-44-11-11-11-11-------|
E|-77-22-9--9--9--9--------| x2

e|-------------------------|
B|-------------------------|
G|-------------------------|
D|-99-11-11-13-13-13-13----|
A|-99-11-11-13-13-13-13----|
E|-77-9--9--11-11-11-11----|

e|-------------------------|
B|-------------------------|
G|-------------------------|
D|-6666--9-----------------|
A|-6666--9-----------------|
E|-4444--7-----------------|

0 reply
jenUHHsis 106 Mar 31, 2008 06:06 AM

it's a 5 star tab!! but where's the bridge?

0 reply
~LΣGACY~ 71 Jun 30, 2011 07:58 PM

Just watched them play this live me and my friends were screming the lyrics haha it was awesome

guest
You may want to rate the tab now too:
select rating
Wanna post a correction for this tab? Suggest correction