Oops, an error
Loading. Please wait.

Tonight tab

version 1
version 1

Whole song

2,511 views 1 this week
4 commentsread comments
1 2 3 4 5
1 last vote to show rating
add to favorites
×
Save as Personal and add changes to this tab that will be seen only by you. Learn more ›
×
You can save this tab as Personal to edit and correct it or add notes. All changes will be seen only by you. Learn more »
launch autoscroll
font size
0
reset
how to read this tab
guitar tuner
edit
Autoscroll
slow
fast
+/-
esc
set tempo
stop
The Afters "Tonight"
Album: Never going back to Ok.
INO Records.
Tuning: standard
I cannot find this song anywhere so I hope I have most of it right! This is my first tab 
here it goes. R=11 fret.
Intro
E------------------------------------------------|
B------------------------------------------------|
G—r-r—r—-13-13---10-10-10—-r—r-r—  Repeat--------| 4x
D—x-x-x---x—x----x—--x—-x—-x-x-x-----------------|
A-9-9-9---r—r----8—--8--8--9-9-9-----------------|
E------------------------------------------------|
Verse      repeat 2x
E---------------------------------------------------------|
B---------------------------------------------------------|
G—r—r—r---10—10-10--8—8—8--6—6—6—-8—8—8—-r—r—r—-10—10—10--|
D—x—x—x---x--x--x---x-x-x—-x—x—x--x-x-x—-x—x—x—-x--x--x---|
A—9—9—9---8--8--8---6-6-6—-4—4—4--6—6—6--9-9-9--8--8--8---|
E---------------------------------------------------------|
   Chorus repeat 2x
E-------------------------------------------------|
B-------------------------------------------------|
G-r--r--r--10-10-10--8-8-8-10-10-10 end with G--8-|
D-r--r--r--10-10-10--8-8-8-10-10-10          D--8-|
A-9--9--9---8--8--8--6-6-6--8--8--8          A--6-|
E-------------------------------------------------|
Repeat intro
Repeat verse and chorus

Bridge
A—9—9—9—9--8—8—8—6—6—6- Repeat 4x
End the bridge with this chord
G--8
D--8
A--6

Palm mute chorus 2x then play it 2x more then play this 2x
G—8—8—8—6—6—6-
D—8—8—8—6—6—6-
A—6—6—6—4—4—4-
 Play intro 4x. Corrections are welcome. I want to get this song 100% right.

            
            
Suggest correction
Creating personal tab
Creating personal tab
You can edit any tab online and save it as your Personal.

You can edit, replace or remove any tab part or add personal notes – all changes will be seen only by you.

Personal tabs can be accessed anytime from any device, even offline.
Learn more »
Give kudos to tab author, rate the tab!
1 2 3 4 5
comments
print report bad tab
4 comments total. Showing first comments.
0 reply
Yazawo 51 May 14, 2010 08:33 PM

when i was listening to it i heard this...it might be a second guitar though...dont know the band well enough to say but this is what i heard

E-------------------------------------------------------|
B-------------------------------------------------------|
G—r—r—r---10—10-10--15-15-15--8—8—8—-r—r—r—-15-15-15----|
D—x—x—x---x--x--x---x--x--x---x-x-x—-x—x—x—-x--x--x-----|
A—9—9—9---8--8--8---13-13-13—-6—6—6--9-9-9--13-13-13----|
E-------------------------------------------------------|

E---------|
B---------|and repeat 10x8 a lot
G-10—10-10|
D-x--x--x-|
A-8--8--8-|
E---------|

0 reply
Yazawo 51 May 14, 2010 08:35 PM

sorry hope this comes out better, if not i have no idea what im getting wrong but youll get the idea

E-------------------------------------------------------|
B-------------------------------------------------------|
G-r-r-r---10-10-10--15-15-15--8-8-8--r-r-r--15-15-15----|
D-x-x-x---x--x--x---x--x--x---x-x-x--x-x-x--x--x--x-----|
A-9-9-9---8--8--8---13-13-13--6-6-6--9-9-9--13-13-13----|
E-------------------------------------------------------|

E---------|
B---------|and repeat 10x8 a lot
G-10-10-10|
D-x--x--x-|
A-8--8--8-|
E---------|

0 reply
Yazawo 51 May 14, 2010 08:46 PM

oh and the little part after well be what we want to be tonight

^= bend btw

E---------------------------
B---------------------------
G-7^-5-7/9-7-5---5-7-7^----- X2
D--------------7------------
A---------------------------
E---------------------------

still dont know if its for a second guitar though

guest
You may want to rate the tab now too:
select rating
Wanna post a correction for this tab? Suggest correction