Oops, an error
Loading. Please wait.

Work To Do tab

1,761 views 3 this week
no commentswrite comment
1 2 3 4 5
2 more votes to show rating
add to favorites
×
Save as Personal and add changes to this tab that will be seen only by you. Learn more ›
×
You can save this tab as Personal to edit and correct it or add notes. All changes will be seen only by you. Learn more »
launch autoscroll
font size
0
reset
how to read this tab
guitar tuner
edit
Autoscroll
slow
fast
+/-
esc
set tempo
stop
Author
-------------------------------------------------------------------------------
                           WORK TO DO - The Aggrolites
-------------------------------------------------------------------------------
Tabbed by: Sam Krepps
Email: sam.krepps@gmail.com

Tuning: Standard

INTRO RIFF (Used again towards the end of the song):
e|---------------------------------------------------------------------------|
B|---------------------------------------------------------------------------|
G|---------7\6-------7\6-------7/6---------7\6-------7\6-------7\6-----------|
D|-----4---------6---------4----------66--------44---------6-----------------|
A|---------------------------------------------------------------------------|
E|---------------------------------------------------------------------------|

e|---------------------------------------------------------------------------|
B|---------------------------------------------------------------------------|
G|----------7\6--------7\6---------------------------------------------------|
D|-----44---------66---------------------------------------------------------|
A|---------------------------------------------------------------------------|
E|---------------------------------------------------------------------------|

CHORDS (reggae-feel hits, best with upstrokes):
        F#      C#add9
e|----2---2-----4---4--------------------------------------------------------|
B|----2---2-----4---4--------------------------------------------------------|
G|----3---3-----4---4--------------------------------------------------------|
D|----4---4-----3---3--------------------------------------------------------|
A|--------------4---4--------------------------------------------------------|
E|---------------------------------------------------------------------------|

LYRICS (over the CHORDS):

one, two, three (Andy said) 
four, five, six (Johnny said)
seven, eight, nine
ten, eleven, twelve
twe-e-elve swingin on a tree
twe-e-elve swingin on a tree

twelve children
swingin on a tree
mommmy says come down
before you break your knee (Mommy said)
twe-e-elve swingin on a tree
twe-e-elve swingin on a tree

mom says what to do
before it gets too late
four come climbin down
it leaves us only eight (and I say)
ei-ei-eight swingin on the tree
ei-ei-eight swingin on the tree

mommy said come down
ya have a well to fix
two, a pair'll listen
it brings us down to six
si-i-ix swingin on the tree
si-i-ix swingin on the tree (mommy said)

listen up, listen up
if you want to stay alive
one of them feared his life
playtime only five
fi-i-ive swingin on the tree
fi-i-ive swingin on the tree

(INTRO RIFF)

five little children
all of them are fun
mommy went and shook the branch
all fell down but one (and she say)
come on now, Johnny boy
listen to what I say
there's a lot of work to do
no more time to play (because we got)
work to do, work to do
work to do, work to do
work to do, work to do
work to do, work to do
(INTRO RIFF)
work to do, work to do
work to do, work to do
(END ON F#)





| /  slide up
| \  slide down
| h  hammer-on
| p  pull-off
| ~  vibrato
| +  harmonic
| x  Mute note
===============================================================================

            
            
Suggest correction
Creating personal tab
Creating personal tab
You can edit any tab online and save it as your Personal.

You can edit, replace or remove any tab part or add personal notes – all changes will be seen only by you.

Personal tabs can be accessed anytime from any device, even offline.
Learn more »
Give kudos to tab author, rate the tab!
1 2 3 4 5
comments
print report bad tab
guest
You may want to rate the tab now too:
select rating
Wanna post a correction for this tab? Suggest correction