Oops, an error
Loading. Please wait.

Take A Bow tab

version 1
version 1

Whole song

Interactive

4,196 views 1 this week
no commentswrite comment
1 2 3 4 5
x 3
add to favorites
×
Save as Personal and add changes to this tab that will be seen only by you. Learn more ›
×
You can save this tab as Personal to edit and correct it or add notes. All changes will be seen only by you. Learn more »
launch autoscroll
font size
0
reset
how to read this tab
guitar tuner
edit
Autoscroll
slow
fast
+/-
esc
set tempo
stop
-------------------------------------------------------------------
Take a Bow - The Agonist
-------------------------------------------------------------------
Tabbed by: Pete_KC
Email: pete8---@hotmail.com

Tuning: Drop D (DADGBe)


  Intro (00:00)
  Gtr 1
e|---------------------------------|
B|---------------------------------|
G|---------------------------------|
D|---0-0-0-0-10p0-8p0-5h7-5h7-8----|
A|---0-0-0-0------------------8----|
D|---0-0-0-0------------------8----|
 |PM - - - -                 
 |
 |Gtr 2
e|---------------------------------|
B|---------------------------------|
G|---------------------------------|
D|---0-0-0-0------------------8----|
A|---0-0-0-0------------------8----|
D|---0-0-0-0------------------8----|
  PM - - - - 

  Verse 1 (2X)
  Gtr 1 & 2
e|--------------------------------------|
B|--------------------------------------|
G|--------------------------------------|
D|------------------------3p0-5p0-7p0---|
A|---3p0-0-0-0--0-0-0-0-0---------------|
D|---3p0-0-0-0--0-0-0-0-0---------------|
 |    PM - - -  - - - - -    
 |
e|-----------------------------------|
B|-----------------------------------|
G|-----------------------------------|
D|--------------------10p0-8p0-7p0---|
A|---0-0-0--0-0-0-0-0----------------|
D|---0-0-0--0-0-0-0-0----------------|
 |PM - - -  - - - - - 
 |
e|------------------------------|
B|------------------------------|
G|------------------------------|
D|--------------------3h7-3h5---|
A|---0-0-0--0-0-0-0-0-----------|
D|---0-0-0--0-0-0-0-0-----------|
 |PM - - -  - - - - -
 |
e|----------------|
B|----------------|
G|----------------|
D|---8--8--5--5---|
A|---8--8--5--5---|
D|---8--8--5--5---|
 |
e|--------------------------------------|
B|--------------------------------------|
G|--------------------------------------|
D|------------------------3p0-5p0-7p0---|
A|---3p0-0-0-0--0-0-0-0-0---------------|
D|---3p0-0-0-0--0-0-0-0-0---------------|
 |    PM - - -  - - - - -    
 |
e|-----------------------------------|
B|-----------------------------------|
G|-----------------------------------|
D|--------------------10p0-8p0-7p0---|
A|---0-0-0--0-0-0-0-0----------------|
D|---0-0-0--0-0-0-0-0----------------|
 |PM - - -  - - - - - 
 |
e|------------------------------|
B|------------------------------|
G|------------------------------|
D|--------------------3h7-3h5---|
A|---0-0-0--0-0-0-0-0-----------|
D|---0-0-0--0-0-0-0-0-----------|
 |PM - - -  - - - - -
 |
e|----------------|
B|----------------|
G|----------------|
D|---8--8--7--7---|
A|---8--8--7--7---|
D|---8--8--7--7---|

  Verse 2 (2X)(00:32)
  Gtr 1 & 2
e|-------------------------------------|
B|-------------------------------------|
G|-------------------------------------|
D|---7---5---------7---5---------------|
A|-----------7h8-------------7h8-------|
D|-----0---0-----0---0---0-0-----0-0---|
 |  PM -   -     -   -   - -     - -
 |
e|-------------------------------------|
B|-------------------------------------|
G|-------------------------------------|
D|---7---5---------7---5---------------|
A|-----------7h8-------------7h8-------|
D|-----5---5-----5---5---5-5-----5-5---|
 |  PM -   -     -   -   - -     - -
 |
e|-------------------------------------|
B|-------------------------------------|
G|-------------------------------------|
D|---7---5---------7---5---------------|
A|-----------7h8-------------7h8-------|
D|-----8---8-----8---8---8-8-----8-8---|
 |  PM -   -     -   -   - -     - -
 |
e|-------------------------------------|
B|-------------------------------------|
G|-------------------------------------|
D|-------------------------------------|
A|---8-----7-----8-----7-----7-8-7-5---|
D|-----0-0---0-0---0-0---0-0-----------|
    PM - -   - -   - -   - -
  
  Breakdown 1 (00:47)
  Gtr 1 & 2
e|--------------|
B|--------------|
G|--------------|
D|---0---4--1---|
A|---0---4--1---|
D|---0---4--1---|
 |
e|-------------------------|------------------|
B|-------------------------|------------------|
G|-------------------------|------------------|
D|-------------------------|------------------|
A|---0-0-0-0-0--0-0-0-0-0--|---0-0--0-0-------|
D|---0-0-0-0-0--0-0-0-0-0--|---0-0--0-0-------|
 |PM - - - - -  - - - - -      - -  - -
 |
e|-------------------------|------------------|
B|-------------------------|------------------|
G|-------------------------|------------------|
D|-------------------------|------------------|
A|---0-0-0-0-0--0-0-0-0-0--|---0-0--0-0--3b---|
D|---0-0-0-0-0--0-0-0-0-0--|---0-0--0-0-------|
 |PM - - - - -  - - - - -      - -  - -
 |
e|-------------------------|-------------------------------|
B|-------------------------|-------------------------------|
G|-------------------------|-------------------------------|
D|-------------------------|-------------------------------|\
A|---0-0-0-0-0--0-0-0-0-0--|---0-0--0-0--3-5-3-0-----------| \
D|---0-0-0-0-0--0-0-0-0-0--|---0-0--0-0----------6-5-3-0---|  \
 |PM - - - - -  - - - - -      - -  - -                        \
 |                                                            2X
e|-------------------------|-------------------------------|  /
B|-------------------------|-------------------------------| /
G|-------------------------|-------------------------------|/
D|-------------------------|-------------------------------|
A|---0-0-0-0-0--0-0-0-0-0--|---0-0--0-0--5h8-5h8-4h7-4h7---|
D|---0-0-0-0-0--0-0-0-0-0--|---0-0--0-0--------------------|
  PM - - - - -  - - - - -      - -  - -

  Breakdown 2 (01:12)
  Gtr 1 & 2
e|------------------------------------|
B|------------------------------------|
G|------------------------------------|
D|------------------------------------|
A|---0-0-0-0-0--0-0-3-5-3-0-----------|
D|---0-0-0-0-0--0-0---------6-5-3-0---|
 |PM - - - - -  - -  
 |
 |Gtr 1
e|----------------------------------------|
B|----------------------------------------|
G|----------------------------------------|
D|----------------------------------------|
A|---0-0-0-0-0--0-0--5h8--5h8--4h7--4h7---|
D|---0-0-0-0-0--0-0-----------------------|
 |PM - - - - -  - -
 |
 |Gtr 2
e|------------------------10-13-10-----------9-12-9-------|
B|----------------------10--------10-------9--------9-----|
G|--------------------10------------10---9------------9---|
D|------------------12----------------11------------------|
A|---0-0-0-0-0--0-0---------------------------------------|
D|---0-0-0-0-0--0-0---------------------------------------|
 |PM - - - - -  - -
 |
 |Gtr 1 & 2
e|------------------------------------|
B|------------------------------------|
G|------------------------------------|
D|------------------------------------|
A|---0-0-0-0-0--0-0-3-5-3-0-----------|
D|---0-0-0-0-0--0-0---------6-5-3-0---|
 |PM - - - - -  - -
 |
e|------------------------------------|
B|------------------------------------|
G|------------------------------------|
D|-------------------3---5---6--------|
A|---0-0-0-0-0--0-0--3---5---6--------|
D|---0-0-0-0-0--0-0--3---5---6--------|
 |PM - - - - -  - -

Repeat Verse 1 (01:21)

  Verse 2 (2X)(01:36)
  Gtr 1 & 2
e|-------------------------------------|
B|-------------------------------------|
G|-------------------------------------|
D|---7---5---------7---5---------------|
A|-----------7h8-------------7h8-------|
D|-----0---0-----0---0---0-0-----0-0---|
 |  PM -   -     -   -   - -     - -
 |
e|-------------------------------------|
B|-------------------------------------|
G|-------------------------------------|
D|---7---5---------7---5---------------|
A|-----------7h8-------------7h8-------|
D|-----5---5-----5---5---5-5-----5-5---|
 |  PM -   -     -   -   - -     - -
 |
e|-------------------------------------|
B|-------------------------------------|
G|-------------------------------------|
D|---7---5---------7---5---------------|
A|-----------7h8-------------7h8-------|
D|-----8---8-----8---8---8-8-----8-8---|
 |  PM -   -     -   -   - -     - -
 |
 |Play 1st time                         Play 2nd time
e|-------------------------------------|-----------------------|
B|-------------------------------------|-----------------------|
G|-------------------------------------|-----------------------|
D|-------------------------------------|---/8--7--5--10---10---|
A|---8-----7-----8-----7-----7-8-7-5---|--------------8---10---|
D|-----0-0---0-0---0-0---0-0-----------|------------------10---|
    PM - -   - -   - -   - -

  Chorus A (01:52)
  Gtr 1 & 2
e|--------------------|--------------------|
B|--------------------|--------------------|
G|--------------------|--------------------|
D|---8-8-8-8-8-8-8-8--|--8-8-8-8-8-8-8-8---|
A|---8-8-8-8-8-8-8-8--|--8-8-8-8-8-8-8-8---|\
D|---8-8-8-8-8-8-8-8--|--8-8-8-8-8-8-8-8---| \
 |                                           3X
e|--------------------|--------------------| /
B|--------------------|--------------------|/
G|--------------------|--------------------|
D|---0-0-0-0-0-0-0-0--|--0-0-0-0-0-0-0-0---|
A|---0-0-0-0-0-0-0-0--|--0-0-0-0-0-0-0-0---|
D|---0-0-0-0-0-0-0-0--|--0-0-0-0-0-0-0-0---|
  
  Chorus B (02:15)
  Gtr 1
e|--------------------|--------------------|
B|--------------------|--------------------|
G|--------------------|--------------------|
D|---8-8-8-8-8-8-8-8--|--8-8-8-8-8-8-8-8---|
A|---8-8-8-8-8-8-8-8--|--8-8-8-8-8-8-8-8---|
D|---8-8-8-8-8-8-8-8--|--8-8-8-8-8-8-8-8---|
 | 
 |Gtr 2
e|---13-12----13-12------|---13-12----13-12-------|
B|--------13-------13----|--------13-------13-----|
G|----------14-------14--|----------14-------14---|
D|-----------------------|------------------------|
A|-----------------------|------------------------|
D|-----------------------|------------------------|
 
  Gtr 1
e|--------------------|--------------------|
B|--------------------|--------------------|
G|--------------------|--------------------|
D|---0-0-0-0-0-0-0-0--|--0-0-0-0-0-0-0-0---|
A|---0-0-0-0-0-0-0-0--|--0-0-0-0-0-0-0-0---|
D|---0-0-0-0-0-0-0-0--|--0-0-0-0-0-0-0-0---|
 |
 |Gtr 2
e|---13-12----13-12------|---13-12---------------|
B|--------13-------13----|--------13---13b-13----|
G|----------14-------14--|----------14-----------|
D|-----------------------|-----------------------|
A|-----------------------|-----------------------|
D|-----------------------|-----------------------|
  
  Gtr 1
e|--------------------|--------------------|     \
B|--------------------|--------------------|     |
G|--------------------|--------------------|     |
D|---8-8-8-8-8-8-8-8--|--8-8-8-8-8-8-8-8---|     |
A|---8-8-8-8-8-8-8-8--|--8-8-8-8-8-8-8-8---|     |
D|---8-8-8-8-8-8-8-8--|--8-8-8-8-8-8-8-8---|     |
 |                                               |
 |Gtr 2                                          |
e|------------12--------|--13-12---------------| |
B|---------13----13-----|--------13-15---------| |
G|------------------14--|--------------14-15---| |
D|---12-15--------------|----------------------| |
A|----------------------|----------------------| |
D|----------------------|----------------------| |
                                                 |
  Gtr 1                                          2X
e|--------------------|--------------------|     |
B|--------------------|--------------------|     |
G|--------------------|--------------------|     |
D|---0-0-0-0-0-0-0-0--|--0-0-0-0-0-0-0-0---|     |
A|---0-0-0-0-0-0-0-0--|--0-0-0-0-0-0-0-0---|     |
D|---0-0-0-0-0-0-0-0--|--0-0-0-0-0-0-0-0---|     |
 |                                               |
 |Gtr 2                                          |
e|------------12--------|--13-12---------------| |
B|---------13----13-----|--------13-15---------| |
G|------------------14--|--------------14-15---| |
D|---12-15--------------|----------------------| |
A|----------------------|----------------------| |
D|----------------------|----------------------| /

  Gtr 1
e|-------------------|
B|-------------------|
G|-------------------|
D|---0---------------|
A|---0---Let Ring----|
D|---0---------------|
 |
 |Gtr 2
e|-------------------|
B|-------------------|
G|-------------------|
D|---12---Let Ring---|
A|-------------------|
D|-------------------|

  Gtr 1
e|--------------------|--------------------|
B|--------------------|--------------------|
G|--------------------|--------------------|
D|---0----------------|--0-----------------|
A|---0----------------|--0-----------------|
D|---0----------------|--0-----------------|
 |
 |Gtr 2
e|--------------------|--------------------|
B|--------------------|--------------------|
G|--------------------|--------------------|
D|---7-8-7-8-7-8-7-8--|--7-8-7-8-7-8-7-8---|
A|--------------------|--------------------|
D|--------------------|--------------------|

  Verse 3A (02:50)
  Gtr 1
e|---------------------|----------------------------|
B|---------------------|----------------------------|
G|---------------------|----------------------------|
D|---0-0--0-0--0-0--0--|----------------------------|
A|---0-0--0-0--0-0--0--|----------------------------|
D|---0-0--0-0--0-0--0--|----------------------------|\
 |PM - -  - -  - -                                    \
 |                                                    4X
 |Gtr 2                   Let Ring                    / 
e|---------------------|----------------------------|/
B|---------------------|----------------------------|
G|---------------------|--3---3---3---3---3---3-----|
D|---0-0--0-0--0-0--0--|----7---7---7---7---7---7---|
A|---0-0--0-0--0-0--0--|----------------------------|
D|---0-0--0-0--0-0--0--|----------------------------|
  PM - -  - -  - -

  Verse 3B (03:04)
  Gtr 1
e|----------------------------|
B|----------------------4-4---|
G|----------------------7-7---|
D|---0-0--0-0--0-0--0---------|
A|---0-0--0-0--0-0--0---------|
D|---0-0--0-0--0-0--0---------|
 |PM - -  - -  - -  -
 |
 |Gtr 2
e|----------------------------|
B|----------------------------|
G|----------------------------|
D|---0-0--0-0--0-0--0---------|
A|---0-0--0-0--0-0--0---------|
D|---0-0--0-0--0-0--0---------|
  PM - -  - -  - -  -

  Gtr 1
e|----------------------|----------------------| \
B|-------------4-4-4-4--|------------4-4-4-4---| |
G|-------------7-7-7-7--|------------7-7-7-7---| |
D|---0-0--0-0-----------|--0-0--0-0------------| |
A|---0-0--0-0-----------|--0-0--0-0------------| |
D|---0-0--0-0-----------|--0-0--0-0------------| |
 |PM - -  - -              - -  - -              |
 |                                               |
 |Gtr 2                                          |
e|----------------------|----------------------| |
B|----------------------|----------------------| |
G|----------------------|----------------------| |
D|---0-0--0-0-----------|--0-0--0-0------------| |
A|---0-0--0-0-----------|--0-0--0-0------------| |
D|---0-0--0-0-----------|--0-0--0-0------------| |
  PM - -  - -              - -  - -  
                                               4X
  Gtr 1                                          |
e|---------------------------------------------| |
B|------------------------4-4------------------| |
G|------------------------7-7------------------| |
D|---0-0--0-0--0-0--0-0------------------------| |
A|---0-0--0-0--0-0--0-0------------------------| |
D|---0-0--0-0--0-0--0-0------------------------| |
 |PM - -  - -  - -  - -                          |
 |                                               |
 |Gtr 2                                          |
e|---------------------------------------------| |
B|---------------------------------------------| |
G|---------------------------------------------| |
D|---0-0--0-0--0-0--0-0------------------------| |
A|---0-0--0-0--0-0--0-0------------------------| |
D|---0-0--0-0--0-0--0-0------------------------| /
  PM - -  - -  - -  - -
 
  Gtr 1
e|---------------|---------------|
B|-------4-------|-------4-------|
G|-------7-------|-------7-------|
D|---0-0---------|---0-0---------|
A|---0-0---------|---0-0---------|
D|---0-0---------|---0-0---------|
 |PM - -             - -
 |
 |Gtr 2
e|---------------|---------------|
B|---------------|---------------|
G|---------------|---------------|
D|---0-0---------|---0-0---------|
A|---0-0---------|---0-0---------|
D|---0-0---------|---0-0---------|
  PM - -             - -

  Gtr 1
e|----------------------|
B|---------------4------|
G|---------------7------|
D|---0-0---0-0----------|
A|---0-0---0-0----------|
D|---0-0---0-0----------|
 |PM - -   - -
 |
 |Gtr 2
e|----------------------|
B|----------------------|
G|----------------------|
D|---0-0---0-0----------|
A|---0-0---0-0----------|
D|---0-0---0-0----------|
  PM - -   - -

  Gtr 1 & 2
e|--------------------------|
B|--------------------------|
G|--------------------------|
D|---0-0---0-0------0-------|
A|---0-0---0-0------0-------|
D|---0-0---0-0------0-------|

END

h   hammer-on
p   Pull-off
b   Bend
PM  Palm Mute
/   Slide up
\   Slide down

            
            
Suggest correction
Creating personal tab
Creating personal tab
You can edit any tab online and save it as your Personal.

You can edit, replace or remove any tab part or add personal notes – all changes will be seen only by you.

Personal tabs can be accessed anytime from any device, even offline.
Learn more »
Give kudos to tab author, rate the tab!
1 2 3 4 5
comments
print report bad tab
guest
You may want to rate the tab now too:
select rating
Wanna post a correction for this tab? Suggest correction