Oops, an error
Loading. Please wait.

Falling From The Sun chords

40 views 1 this week
no commentswrite comment
1 2 3 4 5
3 more votes to show rating
add to favorites
×
Save as Personal and add changes to this tab that will be seen only by you. Learn more ›
×
You can save this tab as Personal to edit and correct it or add notes. All changes will be seen only by you. Learn more »
launch autoscroll
font size
0
reset
transpose
0
reset
display chords
guitar tuner
edit
Autoscroll
slow
fast
+/-
esc
set tempo
stop
Strumming
There is no strumming pattern for this song yet. and get +5 IQ
Falling from the Sun
From the album A Chorus of Storytellers

[INTRO]

D F#m x2

[VERSE 1]

D             F#m
If the sky is burning
Bm                 F#m
When the clouds move in
D        F#m
We come so close
Bm           F#m
When we just miss
D                 F#m
We can't see the start
Bm                F#m
We can't hide the end

[CHORUS]

   D                F#m
e|----------------------------------|
B|-----3-----3----------3-----3-----|
G|---2---2-----2------6---6-----6---|
D|-0-------0-----0--4-------4-----4-|
A|----------------------------------|
E|----------------------------------|
   Find our way to fall

   Bm              F#m
e|---------------------------------|
B|-----3-----3---------3---5p3---3-|
G|---2---2-----2-----6---6-----6---|
D|-0-------0-----0-4---------------|
A|---------------------------------|
E|---------------------------------|
   Find our way to fall

   D                F#m
e|----------------------------------|
B|-----3-----3----------3-----3-----|
G|---2---2-----2------6---6-----6---|
D|-0-------0-----0--4-------4-----4-|
A|----------------------------------|
E|----------------------------------|
   Find our way to fall

   Bm              F#m
e|---------------------------------|
B|-----3-----3---------3---5p3---3-|
G|---2---2-----2-----6---6-----6---|
D|-0-------0-----0-4---------------|
A|---------------------------------|
E|---------------------------------|
   Find our way to fall

[VERSE 2]

D            F#m
I can't see between
Bm               F#m
I can't find the need
D           F#m
We come so close
Bm           F#m
When we just miss

[CHORUS]

D                F#m
Find our way to fall
Bm              F#m
Find our way to fall
D                 F#m
Find our ways to find our way
Bm              F#m
Find our way to fall

[INTERLUDE]

   D    F#m         D             F#m         D
e|----------------------------------------------|
B|----------------------------------------------|
G|----------------------------------------------|
D|------11------11-12p11------9-----------------| x2
A|----9------------------12-----7h9-----12------|
E|-10--------------------------------------9h10-|

[VERSE 3]

D                 F#m
We can't see the start
Bm                F#m
We can't hide the end
D                F#m
When the sky is burning
Bm                 F#m
If the clouds move in

[CHORUS]

D                F#m
Find our way to fall
Bm              F#m
Find our way to fall
D                        F#m
Find our way, yes we'll find our way
Bm              F#m
Find our way to fall

[INTERLUDE]

   D    F#m         D             F#m         D
e|----------------------------------------------|
B|----------------------------------------------|
G|----------------------------------------------|
D|------11------11-12p11------9-----------------|
A|----9------------------12-----7h9-----12------|
E|-10--------------------------------------9h10-|

   D    F#m         D             F#m      Bm
e|--------------------------------------------|
B|--------------------------------------------|
G|--------------------------------------------|
D|------11------11-12p11------9-------------9-|
A|----9------------------12-----7h9-----12----|
E|-10-----------------------------------------|

[BRIDGE]

Bm          F#m
And here we are
          D     Bm
Locked together
Em          F#m
And here we are
 D                Bm
Falling from the sun
Em          F#m
And here we are
          D     Bm
Locked together
Em                       F#m
Find our way, yes we'll find our way
 D               Bm
Find our way to fall

[OUTRO]

 D                      F#m
Find our way, yes we'll find our way
 D              F#m
Find our way to fall
 D                      F#m
Find our way, yes we'll find our way
 D              F#m
Find our way to fall
 D                      N.C.
Find our way, yes we'll find our way
N.C.
Find our way to fall

***********************************
| h    Hammer-on
| N.C. No Chord
| p    Pull-off
***********************************

            
            
Suggest correction
Creating personal tab
Creating personal tab
You can edit any tab online and save it as your Personal.

You can edit, replace or remove any tab part or add personal notes – all changes will be seen only by you.

Personal tabs can be accessed anytime from any device, even offline.
Learn more »
Give kudos to tab author, rate the tab!
1 2 3 4 5
comments
print report bad tab
guest
You may want to rate the tab now too:
select rating
Wanna post a correction for this tab? Suggest correction