Oops, an error
Loading. Please wait.
We have an official Dirty Little Secret tab made by UG professional guitarists. Check out the tab »
×
2,147 views 1 this week
2 commentsread comments
1 2 3 4 5
x 5
add to favorites
guitar tuner
Autoscroll
slow
fast
+/-
esc
set tempo
stop
"Dirty Little Secret"
demo version
Play now

or get full version for Free

×
Get full version now!
Learn and play this song
in Tab Pro
Try for free

or get $10 off Welcome Bonus

Get welcome bonus
Get access to Tab Pro version of “Dirty Little Secret”!
Tab Pro is a premium guitar tab service, available on PC, Mac, iOS and Android
TRY FOR FREE
To download “Dirty Little Secret” Power tab click button below
Please note that you must have Power Tab software installed on your
computer in order to view this file.
Suggest correction
comments
report bad tab
2 comments total.
0 reply
~Bunkering_U~ 51 Aug 12, 2006 09:42 AM

it is a GREAT tab but some parts arent right in the solo part
it is played a little higher up

e|---------------------------------------------------------|
B|----11---11--9-9p8-9p8------11---11--9-9p8-------13(15)--|
G|-----------------------8-------------------10/12---------|
D|--8----8------------------8----8-------------------------|
A|---------------------------------------------------------|
E|---------------------------------------------------------|

e|-----13-----13--11-11p10-11p10--------13-----13--11-11p10-11p10------|
B|--11-----11--------------------11~-11-----11--------------------11\--|
G|---------------------------------------------------------------------|
D|---------------------------------------------------------------------|
A|---------------------------------------------------------------------|
E|---------------------------------------------------------------------|

0 reply
kingofgenocide 10 Dec 03, 2006 03:59 AM

That tab's so bad

guest