Oops, an error
Loading. Please wait.

Fast Slow tab

760 views 3 this week
1 commentread comment
1 2 3 4 5
3 more votes to show rating
add to favorites
×
Save as Personal and add changes to this tab that will be seen only by you. Learn more ›
×
You can save this tab as Personal to edit and correct it or add notes. All changes will be seen only by you. Learn more »
launch autoscroll
font size
0
reset
how to read this tab
guitar tuner
edit
Autoscroll
slow
fast
+/-
esc
set tempo
stop
Fast & Slow
 
The All-American Rejects
Kids in the Street

Intro: (Corrected by Justin4242)
 

e|---||--------------------------|| 
B|---||--10-8-10-8-10-8/6-66-----||
G|-10||:-10-9-10-9-10-9/7-77----:||X3
D|-10||--------------------------||
A|-8-||--------------------------||
E|---||--------------------------||



Verse:
Guitar 1:
e|--------------------------------------------------| 
B|-------------------------------------10-----------|
G|------------------------------------8-------------|
D|-12121212121212-10101010-x1-----7-9----x2---------|
A|--------------------------------------------------|
E|--------------------------------------------------|
Pm________________________
Guitar 2:
e|-----------------------------------| 
B|-----------------------------------|
G|-12121212121212121212-10101010-----|
D|-------------------------------10--|
A|-------------------------------10~-|
E|-------------------------------8---|
Pm______________________________

Chorus:
Guitar 1:
e|-------------------------------| 
B|-------------------------------|
G|-------------------------------|
D|-999999999999-777777777777-----|
A|-999999999999-777777777777-----|
E|-777777777777-555555555555-----|
Pm__________________________

Guitar 2: strum chords E(x12) and Am(x12)






Bridge:
Guitar 1: (Wah-Wah effect)
e|-22-2---------| 
B|-44-4---------|
G|-44-4---------|
D|--------------|(until the end of the bridge)
A|--------------|
E|--------------|




Guitar 2:
     Em AmAm       AmAm
e|----0-0-0--------0-0-------| 
B|----0-1-1--------1-1-------|
G|----0-2-2--------2-2-------|
D|-2--2-2-2--2-2---2-2-------|
A|-2~-2-0-0--2~2~--0-0-------|
E|-0--0-x-x--0-0---x-x-------|

            
            
Suggest correction
Creating personal tab
Creating personal tab
You can edit any tab online and save it as your Personal.

You can edit, replace or remove any tab part or add personal notes – all changes will be seen only by you.

Personal tabs can be accessed anytime from any device, even offline.
Learn more »
Give kudos to tab author, rate the tab!
1 2 3 4 5
comments
print report bad tab
1 comment total.
0 reply
Justin4242 51 Jul 18, 2013 12:58 PM

The beginning riff is:
e|---||--------------------------||
B|---||--10-8-10-8-10-8/6-66-----||
G|-10||:-10-9-10-9-10-9/7-77----:||X3
D|-10||--------------------------||
A|-8-||--------------------------||
E|---||--------------------------||

guest
You may want to rate the tab now too:
select rating
Wanna post a correction for this tab? Suggest correction