Oops, an error
Loading. Please wait.
We have Chord Pro version of Gives You Hell.
It's the closest thing you can get to the original song and it has interactive parts. Check out the tab »
×
102,487 views 36 this week
9 commentsread comments
1 2 3 4 5
x 15
add to favorites
×
Save as Personal and add changes to this tab that will be seen only by you. Learn more ›
×
You can save this tab as Personal to edit and correct it or add notes. All changes will be seen only by you. Learn more »
launch autoscroll
font size
0
reset
guitar tuner
edit
Autoscroll
slow
fast
+/-
esc
set tempo
stop
Author
(rest until about 0:31)
G|----------------------------------------------------|
D|----------------------------------------------------|
A|-0----------4-4--0-0--0-0---------4-4--0-0--0-0-----|
E|---4-2-0-0-------------------0-0----------------4-2-|

(Short Rest)
G|----------------------------------------|----------------------------------------------|
D|----------------------------------------|----------------------------------------------|
A|----------4-4-4-4-4--4-0-0-0-0-0--0-0-0-|----------4-4-4-4-4--4-0-0-0-0-0--0-0-0-0-0-0-|
E|-0-0-0-0-0--0----------------------4-2--|-0-0-0-0-0--0---------------------------------|

 ************lightly play this note  v
G|---------------------------------------------|
D|-----------------------------------2---------|
A|-0---------4-4-4-4-4--4-0-0-0-0-0--0-0-0-----|
E|--0-0-0-0-0--0----------------------4--------|

(Short Rest)
G|---------------------|---------------------|---------------------|
D|---------------------|---------------------|---------------------|
A|------4-4--0-0--0-0--|------4-4--0-0--0-0--|------4-4--0-0--0-0--|
E|-0-0-----------------|-0-0-----------------|-0-0-----------------|

G|-----------------------|
D|------2-2--------------|
A|-----------0-0--0-0-0--|
E|-0-0-----------------4-|

(Short Rest)
G|-13h14h16-11-9~~~|--------------------------------------------------|
D|-----------------|--------------------------------------------------|
A|-----------------|-------4-4--40-0--00-0--0------4-4--4-0-0--0-0-0--|
E|-----------------|-0-0--0------------------0-0--0-------------------|

(Short Rest)
G|---------------------|---------------------|---------------------|
D|---------------------|---------------------|---------------------|
A|------4-4--0-0--0-0--|------4-4--0-0--0-0--|------4-4--0-0--0-0--|
E|-0-0-----------------|-0-0-----------------|-0-0-----------------|

G|----------------------|
D|------2-2-----------2-|
A|-----------0-0--0-0---|
E|-0-0------------------|

(Short Rest)
G|---------------------|---------------------|
D|---------------------|---------------------|
A|------4~~~~0~~~~0~~~~|-4~~~~2~~~~----------|
E|-0~~~~---------------|-----------0~~~~0~~~~|

G|---------------------|---------------------|
D|---------------------|---------------------|
A|------4~~~~0~~~~0~~~~|-4~~~~2~~~~----------|
E|-0~~~~---------------|-----------0~~~~0~~~~|

G|---------------------|---------------------|---------------------|
D|---------------------|---------------------|---------------------|
A|------4-4--0-0--0-0--|-4-4--2-2------------|------4-4--0-0--0-0--|
E|-0-0-----------------|-----------0-0--0-0--|-0-0-----------------|

G|---------------------|---------------------|-----------------|
D|---------------------|---------------------|-----------------|
A|-4-4--2-2------------|-4-4--2-2------------|-4-4-4-4-2-2-2-2-|
E|-----------0-0--0-0--|-----------0-0--0-0--|-----------------|


************************************

| h  Hammer-on
| ~  Vibrato

************************************

            
            
Suggest correction
Creating personal tab
Creating personal tab
You can edit any tab online and save it as your Personal.

You can edit, replace or remove any tab part or add personal notes – all changes will be seen only by you.

Personal tabs can be accessed anytime from any device, even offline.
Learn more »
comments
print report bad tab
9 comments total. Showing first comments. show 1 bad comment
0 reply
jordanbeth 51 Feb 07, 2009 10:42 AM

Great Tab =]

0 reply
RichyHowardBass 50 Feb 13, 2009 11:37 AM

ta nice tab

guest
You may want to rate the tab now too:
select rating
Wanna post a correction for this tab? Suggest correction