Oops, an error
Loading. Please wait.

Move Along bass

version 2
7,989 views 3 this week
7 commentsread comments
1 2 3 4 5
x 4
add to favorites
×
Save as Personal and add changes to this tab that will be seen only by you. Learn more ›
×
You can save this tab as Personal to edit and correct it or add notes. All changes will be seen only by you. Learn more »
launch autoscroll
font size
0
reset
guitar tuner
edit
Autoscroll
slow
fast
+/-
esc
set tempo
stop
Difficulty
intermediate
Simple Tabs Made By C-Demers

Figured This Out On My Own Because All The Otha Tabs Are Not Correct. I Put Down Every 
So There Arent Any "x2's" In There Or Stuff Like That. Thank You And Rock On!!!!

Normal Tunning
(E,A,D,G)

[------]
[------]
[------]  - Rest 2 Measures
[------]

Intro: (Quick and Energetic)

[------------------------------------------------------------------]
[------------------------------------------------------------------]
[------------------------------------------------------------------]
[-0-0-0---0---0---0---0-0---0-0-0-0-0-0---0---0---0---0-0---0-0-0-0]

[--------------------------------------------------------------------------]
[--------------------------------------------------------------------------]
[--------------------------------------------------------------------------]
[0-0----0-0----0-0----0-0----0-0-0-0----7-7----7-7----7-7----7-7----7-7-7-7]

[--------------------------------------------------------------------------]
[--------------------------------------------------------------------------]
[--------------------------------------------------------------------------]
[9-9----9-9----9-9----9-9----9-9-9-9----5-5----5-5----5-5----5-5----5-5-5-5]

Verse 1:

[--------------------------------------------------------------------------]
[--------------------------------------------------------------------------]
[--------------------------------------------------------------------------]
[0-0----0-0----0-0----0-0----0-0-0-0----4-4----4-4----4-4----4-4----4-4-4-4]

[------------------------------------------------------------------------]
[------------------------------------------------------------------------]
[------------------------------------------------------------------------]
[9-9----9-9----9-9----9-9----9-9-9-9----9-9----9-9----9-9----9-9----7----]

[--------------------------------------------------------------------------]
[--------------------------------------------------------------------------]
[--------------------------------------------------------------------------]
[0-0----0-0----0-0----0-0----0-0-0-0----4-4----4-4----4-4----4-4----4-4-4-4]

[------------------------------------------------------------------------]
[------------------------------------------------------------------------]
[------------------------------------------------------------------------]
[9-9----9-9----9-9----9-9----9-9-9-9----9-9----9-9----9-9----9-9----7----]

Pre Chorus: 1

[------------------]  [---------------------------]
[------------------]  [---------------------------]
[------------------]  [---------------------------]
[-------4--------5\]  [0-------5-4-------5-------0]

Chorus: 1 (Count The Number Of Times Playing Each Note. IT MATTERS!)
(They Are 16th Notes If It Helps)

[----------------------------------------------------------------]
[----------------------------------------------------------------]
[44444444444466667777777777777777--------------------------------]
[--------------------------------77777777777777775555555555555555]

[----------------------------------------------------------------]
[----------------------------------------------------------------]
[44444444444466667777777777777777--------------------------------]
[--------------------------------77777777777777775555555555555555]

Back To Intro For A Measure:

[--------------------------------------------------------------------------]
[--------------------------------------------------------------------------]
[--------------------------------------------------------------------------]
[0-0----0-0----0-0----0-0----0-0-0-0----7-7----7-7----7-7----7-7----7-7-7-7]

[--------------------------------------------------------------------------]
[--------------------------------------------------------------------------]
[--------------------------------------------------------------------------]
[9-9----9-9----9-9----9-9----9-9-9-9----5-5----5-5----5-5----5-5----5-5-5-5]

Verse 2:

[-----------------]
[-----------------]
[-----------------]
[-00000-----44444-]

[------------------------------------------------------------------------]
[------------------------------------------------------------------------]
[------------------------------------------------------------------------]
[9-9----9-9----9-9----9-9----9-9-9-9----9-9----9-9----9-9----9-9----6----]

[--------------------------------------------------------------------------]
[--------------------------------------------------------------------------]
[--------------------------------------------------------------------------]
[0-0----0-0----0-0----0-0----0-0-0-0----4-4----4-4----4-4----4-4----4-4-4-4]

[--------------------------------------------------------------------------]
[--------------------------------------------------------------------------]
[--------------------------------------------------------------------------]
[9-9----9-9----9-9----9-9----9-9-9-9----9-9----9-9----9-9----9-9------7----]

Pre Chorus 2:

[------------------]  [---------------------------------]
[------------------]  [---------------------------------]
[------------------]  [---------------------------------]
[-------4--------5\]  [0-------5-4-------5-------0--0--0]

Chorus 2:

[----------------------------------------------------------------]
[----------------------------------------------------------------]
[44444444444466667777777777777777--------------------------------]
[--------------------------------77777777777777775555555555555555]

[----------------------------------------------------------------]
[----------------------------------------------------------------]
[44444444444466667777777777777777--------------------------------]
[--------------------------------77777777777777775555555555555555]

Pre Bridge:

[--------------------------------------------------------------------------]
[--------------------------------------------------------------------------]
[--------------------------------------------------------------------------]
[0-0----0-0----0-0----0-0----0-0-0-0----7-7----7-7----7-7----7-7----7-7-7-7]

[--------------------------------------------------------------------------]
[--------------------------------------------------------------------------]
[--------------------------------------------------------------------------]
[9-9----9-9----9-9----9-9----9-9-9-9----5-5----5-5----5-5----5-5----5-5-5-5]

[--------------------------------------------------------------------------]
[--------------------------------------------------------------------------]
[--------------------------------------------------------------------------]
[0-0----0-0----0-0----0-0----0-0-0-0----7-7----7-7----7-7----7-7----7-7-7-7]

[--------------------------------------------------------------------------]
[--------------------------------------------------------------------------]
[--------------------------------------------------------------------------]
[9-9----9-9----9-9----9-9----9-9-9-9----5-5----5-5----5-5----5-5----5-5-5-5]

[--------------------------------------------------------------------------]
[--------------------------------------------------------------------------]
[--------------------------------------------------------------------------]
[0-------------------0------------------0-------------------0--------------]

[--------------------------------------------------------------------------]
[--------------------------------------------------------------------------]
[--------------------------------------------------------------------------]
[0-------------------0------------------0---------------------0-0-0-0-0-0-0]

Bridge: Piano Plays Alone!

[----------]
[----------]
[----------]       - Rest 8 Measures
[----------]

Chorus 3:

[----------------------------------------------------------------]
[----------------------------------------------------------------]
[44444444444466667777777777777777--------------------------------]
[--------------------------------77777777777777775555555555555555]

[----------------------------------------------------------------]
[----------------------------------------------------------------]
[44444444444466667777777777777777--------------------------------]
[--------------------------------77777777777777775555555555555555]

[----------------------------------------------------------------]
[----------------------------------------------------------------]
[44444444444466667777777777777777--------------------------------]
[--------------------------------77777777777777775555555555555555]

[----------------------------------------------------------------]
[----------------------------------------------------------------]
[44444444444466667777777777777777--------------------------------]
[--------------------------------77777777777777775555555555555555]

Ending: Play Until The Song Ends Because When I Listen To It, It Fades Away So End It 
You Want.

[--------------------------------------------------------------------------]
[--------------------------------------------------------------------------]
[--------------------------------------------------------------------------]
[0-0----0-0----0-0----0-0----0-0-0-0----7-7----7-7----7-7----7-7----7-7-7-7]

[--------------------------------------------------------------------------]
[--------------------------------------------------------------------------]
[--------------------------------------------------------------------------]
[9-9----9-9----9-9----9-9----9-9-9-9----5-5----5-5----5-5----5-5----5-5-5-5]

[--------------------------------------------------------------------------]
[--------------------------------------------------------------------------]
[--------------------------------------------------------------------------]
[0-0----0-0----0-0----0-0----0-0-0-0----7-7----7-7----7-7----7-7----7-7-7-7]

[--------------------------------------------------------------------------]
[--------------------------------------------------------------------------]
[--------------------------------------------------------------------------]
[9-9----9-9----9-9----9-9----9-9-9-9----5-5----5-5----5-5----5-5----5-5-5-5]

            
            
Suggest correction
Creating personal tab
Creating personal tab
You can edit any tab online and save it as your Personal.

You can edit, replace or remove any tab part or add personal notes – all changes will be seen only by you.

Personal tabs can be accessed anytime from any device, even offline.
Learn more »
comments
print report bad tab
7 comments total. Showing first comments.
+1 reply
love=AAR 20 Apr 16, 2007 09:42 AM

this sounds a half step off when playing with the music. i think that it has to be standard tuning on strings 1-3 and put the E string down 1/2 step. good job anyways =)

0 reply
love=AAR 20 Apr 16, 2007 09:45 AM

wait forget what i said about playing in Db, it sounds a lot worse...somebody help me on this one!!

0 reply
chckndmplngs 504 May 20, 2007 02:11 PM

This tab would be okay if the bass was tuned to Eb, Ab, Db, Gb (1/2 step down).

guest
Wanna post a correction for this tab? Suggest correction