Oops, an error
Loading. Please wait.

Real World bass

version 1
version 1

Whole song

Interactive

1,589 views 3 this week
no commentswrite comment
1 2 3 4 5
1 last vote to show rating
add to favorites
×
Save as Personal and add changes to this tab that will be seen only by you. Learn more ›
×
You can save this tab as Personal to edit and correct it or add notes. All changes will be seen only by you. Learn more »
launch autoscroll
font size
0
reset
guitar tuner
edit
Autoscroll
slow
fast
+/-
esc
set tempo
stop
Band: The All-American Rejects
Song: Real World
Album: When the World Comes Down (2008)
Bassist: Tyson Ritter 
Tabber: Cole W.

Drop D

start of the intro and chorus. Slide from 12 to 3 on the D string
G-----------------|-----------------|-----------------|-----------------|
D-----------------|-----------------|-----------------|-----------------|
A-----------------|-----------------|-3-3-3-3-3-3-3-3-|-----------------|
D-0-0-0-0-0-0-0-0-|-3-3-3-3-3-3-3-3-|-----------------|-5-5-5-5-5-5-5-5-|
 
G-----------------|-----------------|-----------------|-----------------|
D-----------------|-----------------|-----------------|-----------------|
A-----------------|-----------------|-3-3-3-3-3-3-3-3-|-----------------|
D-0-0-0-0-0-0-0-0-|-3-3-3-3-3-3-3-3-|-----------------|-5-5-5-5-5-5-5-5-|

 Verse
G-----------------|-----------------|-----------------|-----------------|
D-----------------|-----------------|-----------------|-----------------|
A-----------------|-----------------|-3-3-3-3-3-3-3-3-|-3-3-3-3-3-3-3-3-|
D-0-0-0-0-0-0-0-0-|-3-3-3-3-3-3-3-3-|-----------------|-----------------|
 
G-----------------|-----------------|-----------------|-----------------|
D-----------------|-----------------|-----------------|-----------------|
A-----------------|-----------------|-3-3-3-3-3-3-3-3-|-3-3-3-3-3-3-3-3-|
D-0-0-0-0-0-0-0-0-|-0-0-0-0-0-0-0-0-|-----------------|-----------------|

G-----------------|
D-5-3-2-3-2-3-----|
A-------------3---|
D-----------------|
 
G-----------------|-----------------|-----------------|-----------------|
D-----------------|-----------------|-----------------|-----------------|
A-----------------|-----------------|-3-3-3-3-3-3-3-3-|-3-3-3-3-3-3-3-3-|
D-0-0-0-0-0-0-0-0-|-3-3-3-3-3-3-3-3-|-----------------|-----------------|
 
G-----------------|-----------------|-----------------|-----------------|
D-----------------|-----------------|-----------------|-----------------|
A-----------------|-----------------|-3-3-3-3-3-3-3-3-|-3-3-3-3-3-3-3-3-|
D-0-0-0-0-0-0-0-0-|-0-0-0-0-0-0-0-0-|-----------------|-----------------|


Pre Chorus
G-----------------|-----------------|-----------------|-----------------|
D-----------------|-----------------|-----------------|-----------------|
A-8-8-8-8-8-8-----|-8-8-8-8-8-8-8-8-|-----------------|-8-8-8-8-8-8-8-8-|
E-------------3/--|-----------------|/3-3-3-3-3-3-3-3-|-----------------|
 
Chorus
G-----------------|-----------------|-----------------|-----------------|
D-----------------|-----------------|-----------------|-----------------|
A-----------------|-----------------|-3-3-3-3-3-3-3-3-|-----------------|
D-0-0-0-0-0-0-0-0-|-3-3-3-3-3-3-3-3-|-----------------|-5-5-5-5-5-5-5-5-|
 
G-----------------|-----------------|-----------------|-----------------|
D-----------------|-----------------|-----------------|-----------------|
A-----------------|-----------------|-3-3-3-3-3-3-3-3-|-----------------|
D-0-0-0-0-0-0-0-0-|-3-3-3-3-3-3-3-3-|-----------------|-5-5-5-5-5-5-5-5-|

G-----------------|-----------------|-----------------|-----------------|
D-----------------|-----------------|-----------------|-----------------|
A-----------------|-----------------|-3-3-3-3-3-3-3-3-|-----------------|
D-0-0-0-0-0-0-0-0-|-3-3-3-3-3-3-3-3-|-----------------|-5-5-5-5-5-5-5-5-|
 
G-----------------|-----------------|-----------------|-----------------|
D-----------------|-----------------|-----------------|-----------------|
A-----------------|-----------------|-3-3-3-3-3-3-3-3-|-----------------|
D-0-0-0-0-0-0-0-0-|-3-3-3-3-3-3-3-3-|-----------------|-5-5-5-5-5-5-5-5-|

Verse
G-----------------|-----------------|-----------------|-----------------|
D-----------------|-----------------|-----------------|-----------------|
A-----------------|-----------------|-3-3-3-3-3-3-3-3-|-3-3-3-3-3-3-3-3-|
D-0-0-0-0-0-0-0-0-|-3-3-3-3-3-3-3-3-|-----------------|-----------------|
 
G-----------------|-----------------|-----------------|-----------------|
D-----------------|-----------------|-----------------|-----------------|
A-----------------|-----------------|-3-3-3-3-3-3-3-3-|-3-3-3-3-3-3-3-3-|
D-0-0-0-0-0-0-0-0-|-0-0-0-0-0-0-0-0-|-----------------|-----------------|

G-----------------|-----------------|-----------------|-----------------|
D-----------------|-----------------|-----------------|-----------------|
A-----------------|-----------------|-3-3-3-3-3-3-3-3-|-3-3-3-3-3-3-3-3-|
E-0-0-0-0-0-0-0-0-|-3-3-3-3-3-3-3-3-|-----------------|-----------------|
 
G-----------------|-----------------|-----------------|-----------------|
D-----------------|-----------------|-----------------|-----------------|
A-----------------|-----------------|-3-3-3-3-3-3-3-3-|-3-3-3-3-3-3-3-3-|
D-0-0-0-0-0-0-0-0-|-0-0-0-0-0-0-0-0-|-----------------|-----------------|

Bridge. I'm not sure if this is righ or not. Please feel free to post any corrections.
G-----------------|-----------------|-----------------|-------------------|
D-----------------|-----------------|-----------------|-------------------|
A-----------------|-----------------|-0-0-0-0-0-0-0-0-|-1-1-1-1-1-33/5h7p5|
D-5-5-5-5-5-5-5-5-|-3-3-3-3-3-3-3-3-|-----------------|-------------------|

G-----------------|-----------------|-----------------|
D-----------------|-----------------|-----------------|
A-----------------|-----------------|-0-0-0-0-0-0-0-0-|
D-5-5-5-5-5-5-5-5-|-3-3-3-3-3-3-3-3-|-----------------|

Interlude

Repeat until ending
G-----------------|-----------------|-----------------|-----------------|
D-----------------|-----------------|-----------------|-----------------|
A-----------------|-----------------|-3-3-3-3-3-3-3-3-|-----------------|
D-0-0-0-0-0-0-0-0-|-3-3-3-3-3-3-3-3-|-----------------|-5-5-5-5-5-5-5-5-|
 
G-----------------|-----------------|-----------------|-----------------|
D-----------------|-----------------|-----------------|-----------------|
A-----------------|-----------------|-3-3-3-3-3-3-3-3-|-----------------|
D-0-0-0-0-0-0-0-0-|-3-3-3-3-3-3-3-3-|-----------------|-5-5-5-5-5-5-5-5-|

End with
G-----------------|
D-----------------|
A-----------------|
D-5--3--1--0~~----|

            
            
Suggest correction
Creating personal tab
Creating personal tab
You can edit any tab online and save it as your Personal.

You can edit, replace or remove any tab part or add personal notes – all changes will be seen only by you.

Personal tabs can be accessed anytime from any device, even offline.
Learn more »
Give kudos to tab author, rate the tab!
1 2 3 4 5
comments
print report bad tab
guest
Wanna post a correction for this tab? Suggest correction