Oops, an error
Loading. Please wait.
We have an official Swing Swing tab made by UG professional guitarists. Check out the tab »
×
61,589 views 3 this week
5 commentsread comments
1 2 3 4 5
x 17
add to favorites
×
Save as Personal and add changes to this tab that will be seen only by you. Learn more ›
×
You can save this tab as Personal to edit and correct it or add notes. All changes will be seen only by you. Learn more »
launch autoscroll
font size
0
reset
transpose
0
reset
simplify chords
display chords
guitar tuner
edit
Autoscroll
slow
fast
+/-
esc
set tempo
stop
Author
Strumming
There is no strumming pattern for this song yet. and get +5 IQ
www.theall-americanrejects.com

The all american rejects

Swing Swing........
their first single.....great song.

Key:
* - repeat x 8
p - palm muted
# - repeat x 2

Intro 1:
   G5           G5b      E5         G5
e-----------------------------------------------------------------------------
b-----------------------------------------------------------------------------
d-----------------------------------------------------------------------------
g---5-5--5-----5-5--5----2-2--2----5-5--5--------  Repeat x 1 ----------------
a---5-5--5-----5-5--5----2-2--2----5-5--5-------------------------------------
e---3-3--3-----2-2--2----0-0--0----3-3--3-------------------------------------

Intro 2:
     G5          G5b    E5    C5   
e-------------------------------------------------------------------------
b-------------------------------------------------------------------------
d-----------------------------5*------------------------------------------
g-----5*-------5*------2*-----5*----------   Repeat x 1   ----------------
a-----5*-------5*------2*-----3*------------------------------------------
e-----3*-------2*------0*-------------------------------------------------


Verse:

G5p*                       G5bp*
Days Swiftly come and go...I'm dreaming of her
E5p*                      C5p*
She's seeing other guys...Emotioms they stir
G5p*               G5bp*
The sun is gone...The nights are long
E5p*                   C5p*
And I am left while the tears fall

Pre Chorus:

G5p*               G5bp*           E5p*     C5p*
Did you think that I would cry.....on the phone
G5p*               G5bp*           E5p*     C5p*
Do you know what it feels like....being alone
B5          C5   (hold)
I'll find someone new........

Chorus:

G5*                       G5b
Swing Swing Swing from the tangles of.....
     E5*             C5*
My heart is crushed by a formal  love
G5*                       G5b*              E5*           C5*
Can............you..........help........me........find......a.......way
C5
To carry on again....

Verse 2:

Wish cast into the sky
I'm moving on
Sweet beginings do arise
She knows i was wrong
The notes are old
They bend they fold
so do i to a new love

Bridge:

G5# G5b#
Bury me!!!!
C5p*
You thought your problems were gone
G5#   G5#
Carry me!!
C5*
(away.....away...away....)

Chorus x 2

there we go!!!!

            
            
Suggest correction
Creating personal tab
Creating personal tab
You can edit any tab online and save it as your Personal.

You can edit, replace or remove any tab part or add personal notes – all changes will be seen only by you.

Personal tabs can be accessed anytime from any device, even offline.
Learn more »
comments
print report bad tab
5 comments total. Showing first comments.
0 reply
no1guitarpunk 0 Jan 22, 2003 07:00 PM

hey, not bad, on the verse you have basically the bass notes, which isnt bad cuz it isnt a tab its chords, nice call there... the lead for verse is
e|-3-3--3--------------------------- x8
B|-3-3--3---------------------------
G|----------------------------------
D|----------------------------------
A|----------------------------------
E|----------------------------------
good tab

0 reply
Jaron 131 Jan 25, 2003 07:00 PM

Thank you....you are right. My ears aren't the best for lead guitar. I can hear the bass notes better. Thanks for the correction.

0 reply
lespaulthe2nd 21 Jul 25, 2003 08:00 PM

in the chorus there should be no G5b, it doesn't work, use D5.

guest
You may want to rate the tab now too:
select rating
Wanna post a correction for this tab? Suggest correction