Oops, an error
Loading. Please wait.

Too Far Gone tab

version 5
version 5

Whole song

Interactive

827 views 1 this week
no commentswrite comment
1 2 3 4 5
1 last vote to show rating
add to favorites
×
Save as Personal and add changes to this tab that will be seen only by you. Learn more ›
×
You can save this tab as Personal to edit and correct it or add notes. All changes will be seen only by you. Learn more »
launch autoscroll
font size
0
reset
how to read this tab
guitar tuner
edit
Autoscroll
slow
fast
+/-
esc
set tempo
stop
(intro/verse)
e------------------------------|
B-------1-----1-----1-----1----|
G-----0---0-0---0-0---0-0---0--|
D------------------------------|
A--3---------------------------|
E------------------------------|

e-------------------------------|
B-------1-----1-----1-----1-----|
G-----0---0-0---0-0---0-0---0---|
D--0----------------------------|
A-------------------------------|
E-------------------------------|

e-----------------------------|
B-------1-----1-----1-----1---|
G-----0---0-0---0-0---0-0---0-|
D-----------------------------|
A--0--------------------------|
E-----------------------------|


e-----------------------------|
B-------1-----1-----1-----1---|
G-----0---0-0---0-0---0-0---0-|
D-----------------------------|
A-----------------------------|
E--3--------------------------|


e-----------------------------|
B-------1-----1-----1-----1---|
G-----0---0-0---0-0---0-0---0-|
D-----------------------------|
A-----------------------------|
E--1--------------------------|


(pre-chorus)
C,Am,F,G

(chorus)
C,Am,F,G


(song order)

verse
pre chorus
chorus
verse
pre chorus
chorus
chorus x2

I should warn you
Things you're feeling
Aren't normal now
Think you need me
It's not easy
To let you go somehow

And now we're too far gone
Hope is such a waste
Every breath you take
You give me the burden's bitter taste
You promised that you'd stay
You say you want to go
Your lips provide a shelter to the
Things that I don't know

Please speak slowly
My heart is learning
Teach me heartache
Stop this burning now

Wishful thinking
Patience shrinking
Bliss is far away
North is callin'
Now I'm fallin'
At your feet
Please stay

And now we're too far gone
Hope is such a waste
Every breath you take
You give me the burden's bitter taste
You promised that you'd stay
You say you want to go
Your lips provide a shelter to the
Things that I don't know

Please speak slowly
My heart is learning
Teach me heartache
Stop this burning now

Please speak slowly
My heart is learning
Teach me heartache
Stop this burning now

            
            
Suggest correction
Creating personal tab
Creating personal tab
You can edit any tab online and save it as your Personal.

You can edit, replace or remove any tab part or add personal notes – all changes will be seen only by you.

Personal tabs can be accessed anytime from any device, even offline.
Learn more »
Give kudos to tab author, rate the tab!
1 2 3 4 5
comments
print report bad tab
guest
Wanna post a correction for this tab? Suggest correction