Oops, an error
Loading. Please wait.

Ramblin Man tab

version 3
version 3

Whole song

Interactive

34,064 views 222 this week
3 commentsread comments
1 2 3 4 5
x 9
add to favorites
×
Save as Personal and add changes to this tab that will be seen only by you. Learn more ›
×
You can save this tab as Personal to edit and correct it or add notes. All changes will be seen only by you. Learn more »
launch autoscroll
font size
0
reset
how to read this tab
guitar tuner
backing track
0:00
0:00
edit
Autoscroll
slow
fast
+/-
esc
set tempo
stop
Author
Difficulty
Unregistered
intermediate
RAMBLIN' MAN

As recorded by The Allman Brothers Band

(From the 1973 Album BROTHERS AND SISTERS)

Tablature (Tab) for Guitar

Transcribed by Slowhand (http://www.instantpowertabs.de.vu)

Words and Music by Dickey Betts



Gtr I (E A D G B E) - 'Dickey Betts (Gtr. 1)'

 Gtr II (E A D G B E) - 'Les Dudek (Gtr. 2)'

 Gtr III (E A D G B E) - 'Dickey Betts (Gtr. 3)'

 Gtr IV (E A D G B E) - 'Les Dudek (Gtr. 4)'

 Gtr V (E A D G B E) - 'Dickey Betts (Gtr. 5)'




[Intro]

   Fast Rock Q=184
  4/4
   Gtr II
    W                        W           E  E  E  E  E  E  E  E    E E  H.
e|------------------------|-----------|-------------------------|-12---10-----||
B|------------------------|-----------|-------12----13p12-------|-------------||
G|------------------------|-----------|-12h14----12-------14p12-|-------------||
D|------------------------|-12--------|-------------------------|-------------||
A|------------------------|-----------|-------------------------|-------------||
E|------------------------|-----------|-------------------------|-------------||
|
 | Gtr I
 |  E  E  E  E  E  E  E E    W           E  E  E  E  E  E  E  E    E E  H.
e|-15---------------------|-----------|-------------------------|-------------||
B|----17p15---------------|-----------|-------------------------|-13---12-----||
G|----------16s14-12------|-----------|-------12----14h12-------|-------------||
D|-------------------14---|-----------|-12h14----12-------14h12-|-------------||
A|------------------------|-----------|-------------------------|-------------||
E|------------------------|-----------|-------------------------|-------------||


[Chorus]

   G                F      C        G
   Gtr I
   Q  E E E E e E   Q  E e Q  E e   Q  E e Q  e E   Q  E e Q  e E
e|----------3-----|----1-1--------|---------------|---------------|
B|----3-3---3-3---|----1-1----5-x-|----3-3----3---|----3-3----3---|
G|----4-4-----4---|----2-2----5-x-|----4-4----4---|----4-4----4---|
D|----5-5---------|---------------|----5-5----5---|----5-5----5---|
A|----------------|---------------|---------------|---------------|
E|----------------|---------------|---------------|---------------|


                    C                D6               D
   Q  E E E E e E   Q  E e E E e E   Q  E E E E e E   Q  E E E E e E
e|----------3-----|----------------|------7---------|----------------|
B|----3-3---3-3---|----5-5---5-5---|----7-7---7-7---|----7-7---7-7---|
G|----4-4-----4---|----5-5---5-5---|----7-7---7-7---|----7-7-----7---|
D|----5-5---------|----5-------5---|----7-----7-7---|----7-----------|
A|----------------|----------------|----------------|----------------|
E|----------------|----------------|----------------|----------------|


   C               G                Em              C
   Q  E e Q  e E   Q  E e E E e E   Q  E e Q  e E   Q  E e E E e E
e|---------------|------7---------|----7-7----7---|----------------|
B|----5-5----5---|----8-8---8-8---|----8-8----8---|----5-5---5-5---|
G|----5-5----5---|----7-----7-7---|----9-9----9---|----5-5---5-5---|
D|----5----------|------------9---|---------------|----5-----------|
A|---------------|----------------|---------------|----------------|
E|---------------|----------------|---------------|----------------|


   G               D6              G
   Q  E e Q  e E   Q  E e Q  e E   Q  E e E E e E   Q  E e E E e E
e|------7--------|-----------7---|----3-3---3-3---|----3-3---3-3---||
B|----8-8----8---|----7-7----7---|----3-3---3-3---|----3-3---3-3---||
G|----7------7---|----7-7--------|----4-4-----4---|----4-4-----4---||
D|----9------9---|----7-7--------|----------------|----------------||
A|---------------|---------------|----------------|----------------||
E|---------------|---------------|----------------|----------------||


[1st & 2nd Verses]

   $
   G                C6               G
   Q  E e E E e E   Q  E e E E e E   Q  E e E E e E   Q  E e E E e E
e|----3-3---3-3---|------5---------|----3-3---3-3---|----3-3---3-3---|
B|----3-3---3-3---|----5-5---5-5---|----3-3---3-3---|----3-3---3-3---|
G|----4-4-----4---|----5-5---5-5---|----4-4-----4---|----4-4-----4---|
D|----------------|----5-----5-----|----------------|----------------|
A|----------------|----------------|----------------|----------------|
E|----------------|----------------|----------------|----------------|


                    C6               D6               D
   Q  E e E E e E   Q  E e E E e E   Q  E e E E e E   Q  E e E E e E
e|----3-3---3-3---|------5---------|------7---------|------7---------|
B|----3-3---3-3---|----5-5---5-5---|----7-7---7-7---|----7-7---7-7---|
G|----4-4-----4---|----5-5---5-5---|----7-7---7-7---|----7-7---7-7---|
D|----------------|----5-----5-----|----7-----7-----|----7-----------|
A|----------------|----------------|----------------|----------------|
E|----------------|----------------|----------------|----------------|


   C               G                Em               C
   Q  E e Q  e E   Q  E e E E e E   Q  E e E E e E   Q  E e E E e E
e|---------------|----------------|------7---7-7---|----------------|
B|----5-5----5---|----8-----7-8---|------8---8-8---|----5-5---5-5---|
G|----5-5----5---|----7-7---7-7---|----9-----------|----5-5---5-5---|
D|----5-5--------|----9-9-----9---|----------------|----5-----------|
A|---------------|----------------|----------------|----------------|
E|---------------|----------------|----------------|----------------|


   G                D6               G
   Q  E e E E e E   Q  E e E E e E   Q  E e E E e E   Q  E e E E e E
e|----------3-3---|------7---------|----------3-3---|----------3-3---||
B|----3-3---3-3---|----7-7---7-7---|----3-3---3-3---|----3-3---3-3---||
G|----4-4-----4---|------7---7-7---|----4-4-----4---|----4-4-----4---||
D|----5-5---------|----------------|----5-5---------|----5-5---------||
A|----------------|----------------|----------------|----------------||
E|----------------|----------------|----------------|----------------||


[Chorus]

   G                F         C     G
   Q  E E E E e E   Q  E e Q  E e   Q  E e Q  e E   Q  E e Q  e E
e|----------3-----|----1-1--------|---------------|---------------|
B|----3-3---3-3---|----1-1----5-5-|----3-3----3---|----3-3----3---|
G|----4-4-----4---|----2-2----5-5-|----4-4----4---|----4-4----4---|
D|----5-5---------|---------------|----5-5----5---|----5-5----5---|
A|----------------|---------------|---------------|---------------|
E|----------------|---------------|---------------|---------------|


                    C                D6               D
   Q  E E E E e E   Q  E e E E e E   Q  E E E E e E   Q  E E E E e E
e|----------3-----|----------------|------7---------|----------------|
B|----3-3---3-3---|----5-5---5-5---|----7-7---7-7---|----7-7---7-7---|
G|----4-4-----4---|----5-5---5-5---|----7-7---7-7---|----7-7-----7---|
D|----5-5---------|----5-------5---|----7-----7-7---|----7-----------|
A|----------------|----------------|----------------|----------------|
E|----------------|----------------|----------------|----------------|


   C               G                Em              C
   Q  E e Q  e E   Q  E e E E e E   Q  E e Q  e E   Q  E e E E e E
e|---------------|------7---------|----7-7----7---|----------------|
B|----5-5----5---|----8-8---8-8---|----8-8----8---|----5-5---5-5---|
G|----5-5----5---|----7-----7-7---|----9-9----9---|----5-5---5-5---|
D|----5----------|------------9---|---------------|----5-----------|
A|---------------|----------------|---------------|----------------|
E|---------------|----------------|---------------|----------------|


[Interlude]

                                           To Coda
   G               D6              G                      N.C.
   Gtr II
   W               W               W                  Q    E  E  E  E  E  E
e|---------------|---------------|-----------------||------------------------|
B|---------------|---------------|-----------------||--------------12-13-15--|
G|---------------|---------------|-----------------||-----11-12-14-----------|
D|---------------|---------------|-----------------||------------------------|
A|---------------|---------------|-----------------||------------------------|
E|---------------|---------------|-----------------||------------------------|
|
 | Gtr I
 | Q  E e Q  e E   Q  E e Q  e E   Q  E e E E e E     e E  E  E  E  E  E  E
e|------7--------|-----------7---|----3-3---3-3----||------------------------|
B|----8-8----8---|----7-7----7---|----3-3---3-3----||-7----------------------|
G|----7------7---|----7-7--------|----4-4-----4----||-7----------------9-11--|
D|----9------9---|----7-7--------|-----------------||-7-------9-10-12--------|
A|---------------|---------------|-----------------||-----12-----------------|
E|---------------|---------------|-----------------||------------------------|


    E  E  +Q    Q.    E    E  E Q   H
e|-15p14-(14)--14----12-|----------------|
B|----------------------|-15-13----13----|
G|----------------------|----------------|
D|----------------------|----------------|
A|----------------------|----------------|
E|----------------------|----------------|
|
 | Gtr III
 |  W                      W
e|----------------------|----------------|
B|----------------------|----------------|
G|----------------------|----------------|
D|----------------------|----------------|
A|----------------------|----------------|
E|----------------------|----------------|
|
 | Gtr I
 |  E  E  +Q    Q.    E    E  E Q   H
e|-12p10-(10)--10----10-|----------------|
B|----------------------|-12-10----10----|
G|----------------------|----------------|
D|----------------------|----------------|
A|----------------------|----------------|
E|----------------------|----------------|


    E  E  E  E  E  E  E  E    +H          H
e|-------------------------|-----------------------||
B|-15-13-12----------------|-----------------------||
G|----------14-12----------|-----------------------||
D|----------------14-12----|-----------------------||
A|----------------------14-|-(14)------------------||
E|-------------------------|-----------------------||
|
 |  W                          E   E  Q   E E  E E
e|-------------------------|-----------------------||
B|-------------------------|-------------15---17---||
G|-------------------------|------12s16------------||
D|-------------------------|-----------------------||
A|-------------------------|-----------------------||
E|-------------------------|-----------------------||
|
 |  E  E  E  E  E  E  E  E    +H          H
e|-------------------------|-----------------------||
B|-11-10-------------------|-----------------------||
G|-------12--9-------------|-----------------------||
D|-------------12--9-------|-----------------------||
A|-------------------12-10-|-(10)------------------||
E|-------------------------|-----------------------||


[Guitar Solo]

   Gtr III
         ~~~~~~~~
    E E  Q   +Q.    E        +E    E  E E  E  E  E E
e|-15---15--(15)---17b19==|=(17)r-17-15---15----17---|
B|------------------------|------------------15------|
G|------------------------|--------------------------|
D|------------------------|--------------------------|
A|------------------------|--------------------------|
E|------------------------|--------------------------|


    E  E  E E  E  E  E  E     E  E  E  E  E  E  E  E
e|-15----------------------|-------15----------------|
B|----17p15---17----15-----|-------------------15----|
G|---------------16----16\-|-14s16----16s14s16----16-|
D|-------------------------|-------------------------|
A|-------------------------|-------------------------|
E|-------------------------|-------------------------|


    E  E  E  E  E  E  E E    E  E  E E  E  E  E E
e|------------------------|-----------------------|
B|-17----15---------------|-----------------------|
G|----16----16s14-12------|-12----14---12---------|
D|-------------------14---|----14---------14p12---|
A|------------------------|-----------------------|
E|------------------------|-----------------------|


         ~~                     ~~~~~~~
    E E  H     E  E    E  E  E  E  +Q   Q
e|------------------|----------------------|
B|------------------|----------------------|
G|------------------|----------------------|
D|-12---12----14----|-12-14p12-14-(14)-----|
A|---------------14-|----------------------|
E|------------------|----------------------|


                                         ~~~
    E  E  E  Q.    E  E    E     +E   E  Q.    E  E
e|----------------------|---------------------------|
B|----------------------|---------------------------|
G|-12-14p12-12----14-12-|-14b15r(14)-12-12----14-12-|
D|----------------------|---------------------------|
A|----------------------|---------------------------|
E|----------------------|---------------------------|


                            ~~~
    E  E  E E  E  E  E E    Q.    E  E  E  E E
e|-----------------------|---------------------|
B|-13p12-----------------|-------------15-17---|
G|-------14---14p12------|-------12s16---------|
D|------------------14---|-14------------------|
A|-----------------------|---------------------|
E|-----------------------|---------------------|


    E  E  E E  E  E  E  E    E  E  E  E  E  E  E E
e|-15-15-17---15----------|------------------------|
B|---------------17p15----|-17----15---------------|
G|---------------------16-|----16----16s14-12------|
D|------------------------|-------------------14---|
A|------------------------|------------------------|
E|------------------------|------------------------|


                                    D.S. al Coda
    E  E  E E  E E  E  E    E  E  E  E  E  E  E  E
e|-----------------------|-------------------------||
B|-13p12-----------------|-------------------------||
G|-------14---14---12-14p|=12----12----------------||
D|-----------------------|----14----14p12----------||
A|-----------------------|----------------14-12h14-||
E|-----------------------|-------------------------||


[Chorus]

   &
                  N.C.
   Gtr I
                                                                ~
   Q  E E E E E E    a Q  +H     Q    W          W          E E H    Q
e|----------3-----||----------------|----------|----------|-7p5-7---------|
B|----3-3---3-3---||----------------|----------|----------|-8p6-8---------|
G|----4-4-----4---||-2s4--(4)-------|----------|----------|---------------|
D|----5-----------||-3s5--(5)-------|----------|----------|---------------|
A|----------------||----------------|----------|----------|---------------|
E|----------------||----------------|----------|----------|---------------|


       ~~~~~~~                        ~~               ~
     a Q  +H     Q    E Q  E E Q  E   H.      Q    E E H    Q   5x
e||-----------------|---------------|------------|-7p5-7--------||
B||o----------------|-5-3------5p=3-|------------|-8p6-8-------o||
G||--2s4--(4)-------|-5-4--4---5p=4-|-4----------|--------------||
D||--3s5--(5)-------|------5--------|-5----------|--------------||
A||o----------------|---------------|------------|-------------o||
E||-----------------|---------------|------------|--------------||


     Gtr II
           ~~~~~~~~~~~~~~
        S  E.  +Q    +Q.     E    E  Q   E  E  Q   E
e||----------------------------|-12-10--------12p=10-|
B||o---10h12--(12)--(12)-------|-13-12--12----13p=12-|
G||----10h12--(12)--(12)-------|--------12-12--------|
D||-------------------------12-|-----------12--------|
A||o---------------------------|---------------------|
E||----------------------------|---------------------|
|
 |   Gtr I
 |      ~~~~~~~~~~~
 |   a  Q      +H         Q       E  Q   E  E  Q   E
e||----------------------------|---------------------|
B||o---------------------------|--5--3---------5p==3-|
G||--2s=4------(4)-------------|--5--4---4-----5p==4-|
D||--3s=5------(5)-------------|---------5-----------|
A||o---------------------------|---------------------|
E||----------------------------|---------------------|


    ~~~                 ~~
    H.      Q     E  E  H    Q
e|-------------|-15p13-15--------||
B|-12----------|-15p13-15-------o||
G|-12----------|-----------------||
D|-------------|-----------------||
A|-------------|----------------o||
E|-------------|-----------------||
|
 |  ~~~                 ~~
 |  H.      Q     E  E  H    Q
e|-------------|--7p=5--7--------||
B|-------------|--8p=6--8-------o||
G|--4----------|-----------------||
D|--5----------|-----------------||
A|-------------|----------------o||
E|-------------|-----------------||


            ~~~~~~~~~~~~~~~~~~~~
      S     E.    +Q       +Q.        E
e|--------------------------------------|
B|---10h===12----(12)-----(12)----------|
G|---10h===12----(12)-----(12)----------|
D|-----------------------------------12-|
A|--------------------------------------|
E|--------------------------------------|
|
 | Gtr III
 |    E        E   Q       +E    E E  E
e|--------------------------------------|
B|---10b12--------10b12===(10)r-10p8----|
G|------------------------------------9-|
D|--------------------------------------|
A|--------------------------------------|
E|--------------------------------------|
|
 | Gtr I
 |    ~~~~~~~~~~~~~~~~~~~
 | a  Q           +H               Q
e|--------------------------------------|
B|--------------------------------------|
G|-2s=4-----------(4)-------------------|
D|-3s=5-----------(5)-------------------|
A|--------------------------------------|
E|--------------------------------------|


                                ~~~                    ~~
    E   Q   E  E      Q    E    H.        Q      E  E  H       Q
e|-12--10------------12p==10-|----------------|-15p13-15-----------||
B|-13--12--12--------13p==12-|-12-------------|-15p13-15-----------||
G|---------12-12-------------|-12-------------|--------------------||
D|------------12-------------|----------------|--------------------||
A|---------------------------|----------------|--------------------||
E|---------------------------|----------------|--------------------||
|
 |  ~~~                    ~~~~~~~~         ~~~~~~~~
 |  Q.      E  E     +E E  E   +H     E E E E   +H        E  E E E
e|---------------------------|----------------|--------------------||
B|-10---------10b12r(10)8--8-|-(8)--------8-8-|-(8)-------8h10p8---||
G|---------------------------|--------7-9-----|--------------------||
D|---------------------------|----------------|--------------------||
A|---------------------------|----------------|--------------------||
E|---------------------------|----------------|--------------------||
|
 |                              ~~~                    ~~
 |  E   Q   E  E      Q    E    H.        Q      E  E  H       Q
e|---------------------------|----------------|--7p=5--7-----------||
B|--5---3-------------5p===3-|----------------|--8p=6--8-----------||
G|--5---4---4---------5p===4-|--4-------------|--------------------||
D|----------5----------------|--5-------------|--------------------||
A|---------------------------|----------------|--------------------||
E|---------------------------|----------------|--------------------||


[Outro-Guitar Solo]

   N.C.
            ~~~~~~~~~~~~~~~~~~~~
      S     E.    +Q       +Q.        E
e|--------------------------------------|
B|---10h===12----(12)-----(12)----------|
G|---10h===12----(12)-----(12)----------|
D|-----------------------------------12-|
A|--------------------------------------|
E|--------------------------------------|
|
 |    E        E   Q       +E    E E  E
e|--------------------------------------|
B|---10b12--------10b12===(10)r-10p8----|
G|--------------------------------------|
D|--------------------------------------|
A|--------------------------------------|
E|--------------------------------------|
|
 |    ~~~~~~~~~~~~~~~~~~~
 | a  Q           +H               Q
e|--------------------------------------|
B|--------------------------------------|
G|-2s=4-----------(4)-------------------|
D|-3s=5-----------(5)-------------------|
A|--------------------------------------|
E|--------------------------------------|


                               ~~~                      ~~
    E  Q       E  E  Q    E    H.          Q      E  E  H      Q
e|-12-10------------12p==10-|------------------|-15p13-15----------|
B|-13-12------12----13p==12-|-12---------------|-15p13-15----------|
G|------------12-12---------|-12---------------|-------------------|
D|---------------12---------|------------------|-------------------|
A|--------------------------|------------------|-------------------|
E|--------------------------|------------------|-------------------|
|
 |                             ~~~           ~~~~~~~~            ~
 |  E  E    E  E  E  E E  E    Q.   E E  E E E   +Q     Q  E E E E
e|-10-----------------------|------------------|-------------------|
B|----10b12---10--8----8-10p|==8------8-10p8-8-|-(8)----8------8-8-|
G|-------------------9------|------------------|-----------7-9-----|
D|--------------------------|------------------|-------------------|
A|--------------------------|------------------|-------------------|
E|--------------------------|------------------|-------------------|
|
 |                             ~~~                      ~~
 |  E  Q       E  E  Q    E    H.          Q      E  E  H      Q
e|--------------------------|------------------|--7p=5--7----------|
B|--5--3-------------5p===3-|------------------|--8p=6--8----------|
G|--5--4-------4-----5p===4-|--4---------------|-------------------|
D|-------------5------------|--5---------------|-------------------|
A|--------------------------|------------------|-------------------|
E|--------------------------|------------------|-------------------|


          ~~~~~~~~~~~~~~
      S   E.  +Q    +Q.      E    E  Q    E  E  Q    E
e|-----------------------------|-12-10---------12p==10-|
B|---10h=12--(12)--(12)--------|-13-12---12----13p==12-|
G|---10h=12--(12)--(12)--------|---------12-12---------|
D|--------------------------12-|------------12---------|
A|-----------------------------|-----------------------|
E|-----------------------------|-----------------------|
|
 |    ~~~
 |   +Q        Q.       Q    E    E  E E  E  E  E E  E
e|-----------------------------|-----------------------|
B|---(8)-------8--------8------|--8-10p8----------8--8-|
G|---------------------------9-|----------9--7--9------|
D|-----------------------------|-----------------------|
A|-----------------------------|-----------------------|
E|-----------------------------|-----------------------|
|
 |    ~~~~~~~~~~~~
 | a  Q       +H          Q       E  Q    E  E  Q    E
e|-----------------------------|-----------------------|
B|-----------------------------|--5--3----------5p===3-|
G|-2s=4-------(4)--------------|--5--4----4-----5p===4-|
D|-3s=5-------(5)--------------|----------5------------|
A|-----------------------------|-----------------------|
E|-----------------------------|-----------------------|


    ~~~                         ~~~~
    H.         Q      E  E      H         Q
e|-----------------|-15p13-----15----------------|
B|-12--------------|-15p13-----15----------------|
G|-12--------------|-----------------------------|
D|-----------------|-----------------------------|
A|-----------------|-----------------------------|
E|-----------------|-----------------------------|
|
 |      ~~
 | +Q   Q.   Q   E    E  E     +E  E  E E E  E
e|-----------------|-10--------------------------|
B|-(8)--8----8---8-|----10b12r(10)-8-10---8-10p==|
G|-----------------|-----------------------------|
D|-----------------|-----------------------------|
A|-----------------|-----------------------------|
E|-----------------|-----------------------------|
|
 |  ~~~                         ~~~~
 |  H.         Q      E  E      H         Q
e|-----------------|--7p=5------7----------------|
B|-----------------|--8p=6------8----------------|
G|--4--------------|-----------------------------|
D|--5--------------|-----------------------------|
A|-----------------|-----------------------------|
E|-----------------|-----------------------------|


         ~~~~~~~~~~~~~~
      S  E.  +Q    +Q.      E    E  Q    E  E  Q    E
e|----------------------------|-12-10---------12p==10-|
B|---10h12--(12)--(12)--------|-13-12---12----13p==12-|
G|---10h12--(12)--(12)--------|---------12-12---------|
D|-------------------------12-|------------12---------|
A|----------------------------|-----------------------|
E|----------------------------|-----------------------|
|
 |            ~~~~~~~~~~~
 |    Q       Q.       Q    E    E  E E  E  E  E E  E
e|----------------------------|-----------------------|
B|----8-------8--------8------|--8-10p8----------8--8-|
G|--------------------------9-|----------9--7--9------|
D|----------------------------|-----------------------|
A|----------------------------|-----------------------|
E|----------------------------|-----------------------|
|
 |    ~~~~~~~~~~~
 | a  Q      +H          Q       E  Q    E  E  Q    E
e|----------------------------|-----------------------|
B|----------------------------|--5--3----------5p===3-|
G|-2s=4------(4)--------------|--5--4----4-----5p===4-|
D|-3s=5------(5)--------------|----------5------------|
A|----------------------------|-----------------------|
E|----------------------------|-----------------------|


    ~~~                         ~~
    H.            Q       E  E  H          Q
e|---------------------|-15p13-15---------------|
B|-12------------------|-15p13-15---------------|
G|-12------------------|------------------------|
D|---------------------|------------------------|
A|---------------------|------------------------|
E|---------------------|------------------------|
|
 |                                ~~~~~~
 | +E  E E E E E +E  E    E  E  E E +E  E  E E
e|---------------------|------------------------|
B|-(8)-8-----8-8-(8)-8-|--------8-8-(8)-8-10-8--|
G|-------7-9-----------|--7--9------------------|
D|---------------------|------------------------|
A|---------------------|------------------------|
E|---------------------|------------------------|
|
 |  ~~~                         ~~
 |  H.            Q       E  E  H          Q
e|---------------------|--7p=5--7---------------|
B|---------------------|--8p=6--8---------------|
G|--4------------------|------------------------|
D|--5------------------|------------------------|
A|---------------------|------------------------|
E|---------------------|------------------------|


            ~~~~~~~~~~~~~~~~~~
      S     E.  +Q      +Q.        E    E     Q     E  E          Q     E
e|-----------------------------------|-12----10------------------12p===10-|
B|---10h===12--(12)----(12)----------|-13----12----12------------13p===12-|
G|---10h===12--(12)----(12)----------|-------------12-12------------------|
D|--------------------------------12-|----------------12------------------|
A|-----------------------------------|------------------------------------|
E|-----------------------------------|------------------------------------|
|
 |    Q          E   E   Q      E  E    Q        E  E  S     +S   E  E  E
e|--------------10--10---------10-10-|----------10-10---------------------|
B|---10b12--------------10b12--------|-10b12----------10b12r(10)--8-10--8-|
G|-----------------------------------|------------------------------------|
D|-----------------------------------|------------------------------------|
A|-----------------------------------|------------------------------------|
E|-----------------------------------|------------------------------------|
|
 |    ~~~~~~~~~~~~~~
 | a  Q         +H              Q       E     Q     E  E          Q     E
e|-----------------------------------|------------------------------------|
B|-----------------------------------|--5-----3-------------------5p====3-|
G|-2s=4---------(4)------------------|--5-----4-----4-------------5p====4-|
D|-3s=5---------(5)------------------|--------------5---------------------|
A|-----------------------------------|------------------------------------|
E|-----------------------------------|------------------------------------|


    ~~~~~                                ~~
    H.                  Q       E     E  H                  Q
e|---------------------------|-15p===13-15-----------------------|
B|-12------------------------|-15p===13-15-----------------------|
G|-12------------------------|-----------------------------------|
D|---------------------------|-----------------------------------|
A|---------------------------|-----------------------------------|
E|---------------------------|-----------------------------------|
|
 |  Q      E  E  Q      E  E    Q        E  E  S     +S  E  E E
e|--------10-10--------10-10-|----------10-10--------------------|
B|-10b12--------10b12--------|-10b12----------10b12r(10)-8-10-8--|
G|---------------------------|-----------------------------------|
D|---------------------------|-----------------------------------|
A|---------------------------|-----------------------------------|
E|---------------------------|-----------------------------------|
|
 |  ~~~~~                                ~~
 |  H.                  Q       E     E  H                  Q
e|---------------------------|--7p====5--7-----------------------|
B|---------------------------|--8p====6--8-----------------------|
G|--4------------------------|-----------------------------------|
D|--5------------------------|-----------------------------------|
A|---------------------------|-----------------------------------|
E|---------------------------|-----------------------------------|


            ~~~~~~~~~~~~~~~~~~~~~
      S     E.     +Q      +Q.          E    E     Q     E  E     Q     E
e|----------------------------------------|-12----10-------------12p===10-|
B|---10h===12-----(12)----(12)------------|-13----12----12-------13p===12-|
G|---10h===12-----(12)----(12)------------|-------------12-12-------------|
D|-------------------------------------12-|----------------12-------------|
A|----------------------------------------|-------------------------------|
E|----------------------------------------|-------------------------------|
|
 |    E         E   E   E   E     E  E  E    E     E  E  E  E     E  E  E
e|-------------10--10--10--------10-10-10-|-------10-10-10-------10-10-10-|
B|---10b12-----------------10b12----------|-10b12----------10b12----------|
G|----------------------------------------|----------------10b12----------|
D|----------------------------------------|-------------------------------|
A|----------------------------------------|-------------------------------|
E|----------------------------------------|-------------------------------|
|
 |    ~~~~~~~~~~~~~~~~~
 | a  Q            +H                Q       E     Q     E  E     Q     E
e|----------------------------------------|-------------------------------|
B|----------------------------------------|--5-----3--------------5p====3-|
G|-2s=4------------(4)--------------------|--5-----4-----4--------5p====4-|
D|-3s=5------------(5)--------------------|--------------5----------------|
A|----------------------------------------|-------------------------------|
E|----------------------------------------|-------------------------------|


    ~~~~~                                    ~~
    H.                      Q       E     E  H              Q
e|-------------------------------|-15p===13-15-------------------|
B|-12----------------------------|-15p===13-15-------------------|
G|-12----------------------------|-------------------------------|
D|-------------------------------|-------------------------------|
A|-------------------------------|-------------------------------|
E|-------------------------------|-------------------------------|
|
 |  E     E  E  E  E     E  E  E    E     E  E  E  E     E  E  E
e|-------10-10-10-------10-10-10-|-------10-10-10-------10-10-10-|
B|-10b12----------10b12----------|-10b12----------10b12----------|
G|----------------10b12----------|-------------------------------|
D|-------------------------------|-------------------------------|
A|-------------------------------|-------------------------------|
E|-------------------------------|-------------------------------|
|
 |  ~~~~~                                    ~~
 |  H.                      Q       E     E  H              Q
e|-------------------------------|--7p====5--7-------------------|
B|-------------------------------|--8p====6--8-------------------|
G|--4----------------------------|-------------------------------|
D|--5----------------------------|-------------------------------|
A|-------------------------------|-------------------------------|
E|-------------------------------|-------------------------------|


            ~~~~~~~~~~~~~~~~~~~~~
      S     E.     +Q      +Q.          E    E     Q     E  E     Q     E
e|----------------------------------------|-12----10-------------12p===10-|
B|---10h===12-----(12)----(12)------------|-13----12----12-------13p===12-|
G|---10h===12-----(12)----(12)------------|-------------12-12-------------|
D|-------------------------------------12-|----------------12-------------|
A|----------------------------------------|-------------------------------|
E|----------------------------------------|-------------------------------|
|
 |    E         E   E   E   E     E  E  E    E     E  E  E  E     E  E  E
e|-------------10--10--10--------10-10-10-|-------10-10-10-------10-10-10-|
B|---10b12-----------------10b12----------|-10b12----------10b12----------|
G|---10b12--------------------------------|-10b12----------10b12----------|
D|----------------------------------------|-------------------------------|
A|----------------------------------------|-------------------------------|
E|----------------------------------------|-------------------------------|
|
 |    ~~~~~~~~~~~~~~~~~
 | a  Q            +H                Q       E     Q     E  E     Q     E
e|----------------------------------------|-------------------------------|
B|----------------------------------------|--5-----3--------------5p====3-|
G|-2s=4------------(4)--------------------|--5-----4-----4--------5p====4-|
D|-3s=5------------(5)--------------------|--------------5----------------|
A|----------------------------------------|-------------------------------|
E|----------------------------------------|-------------------------------|


    ~~~~~~                              ~~
    H.                 Q       E     E  H        Q
e|--------------------------|-15p===13-15-----------------|
B|-12-----------------------|-15p===13-15-----------------|
G|-12-----------------------|-----------------------------|
D|--------------------------|-----------------------------|
A|--------------------------|-----------------------------|
E|--------------------------|-----------------------------|
|
 |  E     +E  E E E  E E  E    S  S  E  E E E  E E  E
e|--------------------------|-----------------------------|
B|-10b12r(10)-8---8-10p8-10h|=11p10p=8-10---8-10p8-10b12--|
G|--------------9-----------|-------------9---------------|
D|--------------------------|-----------------------------|
A|--------------------------|-----------------------------|
E|--------------------------|-----------------------------|
|
 |  ~~~~~~                              ~~
 |  H.                 Q       E     E  H        Q
e|--------------------------|--7p====5--7-----------------|
B|--------------------------|--8p====6--8-----------------|
G|--4-----------------------|-----------------------------|
D|--5-----------------------|-----------------------------|
A|--------------------------|-----------------------------|
E|--------------------------|-----------------------------|


         ~~~~~~~~~~~~~~~~~~~~~~
      S  E.    +Q          +Q.             E    E      Q     E      E   Q         E
e|-------------------------------------------|-12-----10---------------12p=======10--|
B|---10h12----(12)--------(12)---------------|-13-----12----12---------13p=======12--|
G|---10h12----(12)--------(12)---------------|--------------12-----12----------------|
D|----------------------------------------12-|---------------------12----------------|
A|-------------------------------------------|---------------------------------------|
E|-------------------------------------------|---------------------------------------|
|
 |    E     E   E     +E    E   E     +E   E    E     +E  E  E     +E   E  E     +E
e|-------------------------------------------|---------------------------------------|
B|---10-----8--10b12r(10)---8--10b12r(10)--8-|-10b12r(10)-8-10b12r(10)--8-10b12r(10)-|
G|-------------------------------------------|---------------------------------------|
D|-------------------------------------------|---------------------------------------|
A|-------------------------------------------|---------------------------------------|
E|-------------------------------------------|---------------------------------------|
|
 |    ~~~~~~~~~~~~~~~~
 | a  Q        +H                      Q        E      Q     E      E   Q         E
e|-------------------------------------------|---------------------------------------|
B|-------------------------------------------|--5------3----------------5p========3--|
G|-2s=4--------(4)---------------------------|--5------4-----4----------5p========4--|
D|-3s=5--------(5)---------------------------|---------------5-----------------------|
A|-------------------------------------------|---------------------------------------|
E|-------------------------------------------|---------------------------------------|


    ~~~                                      ~~
    H.                      Q          E  E  H        Q
e|----------------------------------|-15p13-15------------|
B|-12-------------------------------|-15p13-15------------|
G|-12-------------------------------|---------------------|
D|----------------------------------|---------------------|
A|----------------------------------|---------------------|
E|----------------------------------|---------------------|
|
 |  E   E     +E  E  Q      E  E       E  E  E E E  E E E
e|-------------------------10-------|---------------------|
B|--8--10b12r(10)-8-10b12-----10b12-|-10--8-10---8-10p8---|
G|----------------------------------|----------9--------9-|
D|----------------------------------|---------------------|
A|----------------------------------|---------------------|
E|----------------------------------|---------------------|
|
 |  ~~~                                      ~~
 |  H.                      Q          E  E  H        Q
e|----------------------------------|--7p=5--7------------|
B|----------------------------------|--8p=6--8------------|
G|--4-------------------------------|---------------------|
D|--5-------------------------------|---------------------|
A|----------------------------------|---------------------|
E|----------------------------------|---------------------|


   Gtr IV
                                   ~~
    Q         Q      +Q    E  E    H         Q        +Q
e|-----------17b19r=(17)--15----|-17--------17b19r===(17)----|
B|------------------------------|----------------------------|
G|------------------------------|----------------------------|
D|------------------------------|----------------------------|
A|------------------------------|----------------------------|
E|------------------------------|----------------------------|
|
 | Gtr II
 |     ~~~~~~~~~~~~~~~~~~
 |  S  E.    +Q      +Q.      E    E  Q   E  E     Q       E
e|------------------------------|-12-10-----------12p=====10-|
B|-10h12----(12)----(12)--------|-13-12--12-------13p=====12-|
G|-10h12----(12)----(12)--------|--------12-12---------------|
D|---------------------------12-|-----------12---------------|
A|------------------------------|----------------------------|
E|------------------------------|----------------------------|
|
 | Gtr III
 |                                 ~~
 |  E     E   H            E  E    H         Q        +Q
e|-13--------13b15--------13p10-|-13--------13b15r===(13)----|
B|------------------------------|----------------------------|
G|------------------------------|----------------------------|
D|------------------------------|----------------------------|
A|------------------------------|----------------------------|
E|------------------------------|----------------------------|


    ~~~
    W              H          E  E  E E
e|-15----------|-------------19h20-19----|
B|-------------|-------------------------|
G|-------------|-------------------------|
D|-------------|-------------------------|
A|-------------|-------------------------|
E|-------------|-------------------------|
|
 |  ~~~                   ~~
 |  H.      Q      E   E  H         Q
e|-------------|--15p=13-15--------------|
B|-12----------|--15p=13-15--------------|
G|-12----------|-------------------------|
D|-------------|-------------------------|
A|-------------|-------------------------|
E|-------------|-------------------------|
|
 |  ~~~~~~~~~~~~~~~~~~
 |  W             +Q      Q   E  E  E E
e|-10----------|-(10)--------15h17p15----|
B|-------------|-------------------------|
G|-------------|-------------------------|
D|-------------|-------------------------|
A|-------------|-------------------------|
E|-------------|-------------------------|


    H                +E    E  E.    S
e|-20b22============(20)r-20-19-------|
B|------------------------------------|
G|------------------------------------|
D|------------------------------------|
A|------------------------------------|
E|------------------------------------|
|
 |         ~~~~~~~~~~~~~~~
 |  S      E.  +Q    +Q.          E
e|------------------------------------|
B|-10h====12--(12)--(12)--------------|
G|-10h====12--(12)--(12)--------------|
D|-------------------------------12---|
A|------------------------------------|
E|------------------------------------|
|
 |  H                 E    E  E.    S
e|-17b19------------------17-15-------|
B|------------------------------------|
G|------------------------------------|
D|------------------------------------|
A|------------------------------------|
E|------------------------------------|


    ~~                           ~~~
    H         Q        +Q        W             H         E  E  E E
e|-20--------20b22r===(20)----|-19----------|-----------15h17p15----|
B|----------------------------|-------------|-----------------------|
G|----------------------------|-------------|-----------------------|
D|----------------------------|-------------|-----------------------|
A|----------------------------|-------------|-----------------------|
E|----------------------------|-------------|-----------------------|
|
 |                               ~~~                 ~~
 |  E  Q   E  E     Q       E    H.      Q     E  E  H         Q
e|-12-10-----------12p=====10-|-------------|-15p13-15--------------|
B|-13-12--12-------13p=====12-|-12----------|-15p13-15--------------|
G|--------12-12---------------|-12----------|-----------------------|
D|-----------12---------------|-------------|-----------------------|
A|----------------------------|-------------|-----------------------|
E|----------------------------|-------------|-----------------------|
|
 |  ~~                           ~~~
 |  H         Q        +Q        W             H         E  E  E E
e|-17--------17b19r===(17)----|-15----------|-----------10h12p10----|
B|----------------------------|-------------|-----------------------|
G|----------------------------|-------------|-----------------------|
D|----------------------------|-------------|-----------------------|
A|----------------------------|-------------|-----------------------|
E|----------------------------|-------------|-----------------------|


    H                +E    E  E   E
e|-17b19============(17)r-17-15-------|
B|------------------------------------|
G|------------------------------------|
D|------------------------------------|
A|------------------------------------|
E|------------------------------------|
|
 |         ~~~~~~~~~~~~~~~
 |  S      E.  +Q    +Q.          E
e|------------------------------------|
B|-10h====12--(12)--(12)--------------|
G|-10h====12--(12)--(12)--------------|
D|-------------------------------12---|
A|------------------------------------|
E|------------------------------------|
|
 |  H                +E    E  E.    S
e|-13b15============(13)r-13-10-------|
B|------------------------------------|
G|------------------------------------|
D|------------------------------------|
A|------------------------------------|
E|------------------------------------|


    ~~                           ~~~
    H         Q        +Q        W             H         E  E  E E
e|-17--------17b19r===(17)----|-15----------|-----------19h20-19----|
B|----------------------------|-------------|-----------------------|
G|----------------------------|-------------|-----------------------|
D|----------------------------|-------------|-----------------------|
A|----------------------------|-------------|-----------------------|
E|----------------------------|-------------|-----------------------|
|
 |                               ~~~                 ~~
 |  E  Q   E  E     Q       E    H.      Q     E  E  H         Q
e|-12-10-----------12p=====10-|-------------|-15p13-15--------------|
B|-13-12--12-------13p=====12-|-12----------|-15p13-15--------------|
G|--------12-12---------------|-12----------|-----------------------|
D|-----------12---------------|-------------|-----------------------|
A|----------------------------|-------------|-----------------------|
E|----------------------------|-------------|-----------------------|
|
 |                               ~~~
 |  H         Q        +Q        W             H         E  E  E E
e|-13--------13b15r===(13)----|-10----------|-----------15h17p15----|
B|----------------------------|-------------|-----------------------|
G|----------------------------|-------------|-----------------------|
D|----------------------------|-------------|-----------------------|
A|----------------------------|-------------|-----------------------|
E|----------------------------|-------------|-----------------------|


    H                +E    E  E.    S
e|-20b22============(20)r-20-19-------|
B|------------------------------------|
G|------------------------------------|
D|------------------------------------|
A|------------------------------------|
E|------------------------------------|
|
 |         ~~~~~~~~~~~~~~~
 |  S      E.  +Q    +Q.          E
e|------------------------------------|
B|-10h====12--(12)--(12)--------------|
G|-10h====12--(12)--(12)--------------|
D|-------------------------------12---|
A|------------------------------------|
E|------------------------------------|
|
 |  H                +E    E  E.    S
e|-17b19============(17)r-17-15-------|
B|------------------------------------|
G|------------------------------------|
D|------------------------------------|
A|------------------------------------|
E|------------------------------------|


    ~~                           ~~~
    H         Q        +Q        W             H         E  E  E E
e|-20--------20b22r===(20)----|-19----------|-----------15h17-15----|
B|----------------------------|-------------|-----------------------|
G|----------------------------|-------------|-----------------------|
D|----------------------------|-------------|-----------------------|
A|----------------------------|-------------|-----------------------|
E|----------------------------|-------------|-----------------------|
|
 |                               ~~~                 ~~
 |  E  Q   E  E     Q       E    H.      Q     E  E  H         Q
e|-12-10-----------12p=====10-|-------------|-15p13-15--------------|
B|-13-12--12-------13p=====12-|-12----------|-15p13-15--------------|
G|--------12-12---------------|-12----------|-----------------------|
D|-----------12---------------|-------------|-----------------------|
A|----------------------------|-------------|-----------------------|
E|----------------------------|-------------|-----------------------|
|
 |  ~~                           ~~~
 |  H         Q        +Q        W             H         E  E  E E
e|-17--------17b19r===(17)----|-15----------|-----------------------|
B|----------------------------|-------------|-----------15h17p15----|
G|----------------------------|-------------|-----------------------|
D|----------------------------|-------------|-----------------------|
A|----------------------------|-------------|-----------------------|
E|----------------------------|-------------|-----------------------|


                        ~~~~~~~~~~~~                       ~~~~~~~~~~~~
    E         +E    E   E      +Q    Q       E     +E   E  E      +Q      Q
e|-17b19r====(17)--15--17b19==(17)r-------|-17b19r(17)-15-17b19==(17)r---------|
B|----------------------------------------|------------------------------------|
G|----------------------------------------|------------------------------------|
D|----------------------------------------|------------------------------------|
A|----------------------------------------|------------------------------------|
E|----------------------------------------|------------------------------------|
|
 |        ~~~~~~~~~~~~~~~~~~~~~~~~~~
 |  S     E.       +Q          +Q.      E    E      Q      E       E    Q    E
e|----------------------------------------|-12-----10------------------12p==10-|
B|-10h===12-------(12)--------(12)--------|-13-----12-----12-----------13p==12-|
G|-10h===12-------(12)--------(12)--------|---------------12------12-----------|
D|-------------------------------------12-|-----------------------12-----------|
A|----------------------------------------|------------------------------------|
E|----------------------------------------|------------------------------------|
|
 |                      ~~~~~~~~~~~~                       ~~~~~~~~~~~~
 |  E         +E    E   E      +Q    Q       E     +E   E  E      +Q      Q
e|----------------------------------------|------------------------------------|
B|-18b20r====(18)--15--18b20==(18)r-------|-18b20r(18)-15-18b20==(18)r---------|
G|----------------------------------------|------------------------------------|
D|----------------------------------------|------------------------------------|
A|----------------------------------------|------------------------------------|
E|----------------------------------------|------------------------------------|


                  ~~~~~~~~~~~~                     ~~~~~~~~~~~~
    E     +E   E  E      +Q    Q     E     +E   E  E      +Q    Q
e|-17b19r(17)-15-17b19==(17)r-----|-17b19r(17)-15-17b19==(17)r------|
B|--------------------------------|---------------------------------|
G|--------------------------------|---------------------------------|
D|--------------------------------|---------------------------------|
A|--------------------------------|---------------------------------|
E|--------------------------------|---------------------------------|
|
 |  ~~~~~~                                      ~~
 |  H.                         Q     E      E   H               Q
e|--------------------------------|-15p====13--15-------------------|
B|-12-----------------------------|-15p====13--15-------------------|
G|-12-----------------------------|---------------------------------|
D|--------------------------------|---------------------------------|
A|--------------------------------|---------------------------------|
E|--------------------------------|---------------------------------|
|
 |                ~~~~~~~~~~~~                     ~~~~~~~~~~~~
 |  E     +E   E  E      +Q    Q     E     +E   E  E      +Q    Q
e|--------------------------------|---------------------------------|
B|-18b20r(18)-15-18b20==(18)r-----|-18b20r(18)-15-18b20==(18)r------|
G|--------------------------------|---------------------------------|
D|--------------------------------|---------------------------------|
A|--------------------------------|---------------------------------|
E|--------------------------------|---------------------------------|


                        ~~~~~~~~~~~~                       ~~~~~~~~~~~~
    E         +E    E   E      +Q    Q       E     +E   E  E      +Q      Q
e|-17b19r====(17)--15--17b19==(17)r-------|-17b19r(17)-15-17b19==(17)r---------|
B|----------------------------------------|------------------------------------|
G|----------------------------------------|------------------------------------|
D|----------------------------------------|------------------------------------|
A|----------------------------------------|------------------------------------|
E|----------------------------------------|------------------------------------|
|
 |        ~~~~~~~~~~~~~~~~~~~~~~~~~~
 |  S     E.       +Q          +Q.      E    E      Q      E       E    Q    E
e|----------------------------------------|-12-----10------------------12p==10-|
B|-10h===12-------(12)--------(12)--------|-13-----12-----12-----------13p==12-|
G|-10h===12-------(12)--------(12)--------|---------------12------12-----------|
D|-------------------------------------12-|-----------------------12-----------|
A|----------------------------------------|------------------------------------|
E|----------------------------------------|------------------------------------|
|
 |                      ~~~~~~~~~~~~                       ~~~~~~~~~~~~
 |  E         +E    E   E      +Q    Q       E     +E   E  E      +Q      Q
e|----------------------------------------|------------------------------------|
B|-18b20r====(18)--15--18b20==(18)r-------|-18b20r(18)-15-18b20==(18)r---------|
G|----------------------------------------|------------------------------------|
D|----------------------------------------|------------------------------------|
A|----------------------------------------|------------------------------------|
E|----------------------------------------|------------------------------------|


                  ~~~~~~~~~~~~                     ~~~~~~~~~~~~
    E     +E   E  E      +Q    Q     E     +E   E  E      +Q    Q
e|-17b19r(17)-15-17b19==(17)r-----|-17b19r(17)-15-17b19==(17)r------|
B|--------------------------------|---------------------------------|
G|--------------------------------|---------------------------------|
D|--------------------------------|---------------------------------|
A|--------------------------------|---------------------------------|
E|--------------------------------|---------------------------------|
|
 |  ~~~~~~                                      ~~
 |  H.                         Q     E      E   H               Q
e|--------------------------------|-15p====13--15-------------------|
B|-12-----------------------------|-15p====13--15-------------------|
G|-12-----------------------------|---------------------------------|
D|--------------------------------|---------------------------------|
A|--------------------------------|---------------------------------|
E|--------------------------------|---------------------------------|
|
 |                ~~~~~~~~~~~~                     ~~~~~~~~~~~~
 |  E     +E   E  E      +Q    Q     E     +E   E  E      +Q    Q
e|--------------------------------|---------------------------------|
B|-18b20r(18)-15-18b20==(18)r-----|-18b20r(18)-15-18b20==(18)r------|
G|--------------------------------|---------------------------------|
D|--------------------------------|---------------------------------|
A|--------------------------------|---------------------------------|
E|--------------------------------|---------------------------------|


    E         +E    E   E     +E   E  E     +E     E  E     +E   E  E     +E   E  E
e|-17b19r====(17)--15--17b19r(17)-15-17b19r(17)-|-15-17b19r(17)-15-17b19r(17)-15-17b19r|
B|----------------------------------------------|--------------------------------------|
G|----------------------------------------------|--------------------------------------|
D|----------------------------------------------|--------------------------------------|
A|----------------------------------------------|--------------------------------------|
E|----------------------------------------------|--------------------------------------|
|
 |        ~~~~~~~~~~~~~~~~~~~~~~~~
 |  S     E.       +Q         +Q.            E     E  Q          E  E      Q      E
e|----------------------------------------------|-12-10-------------------12p====10----|
B|-10h===12-------(12)-------(12)---------------|-13-12---------12--------13p====12----|
G|-10h===12-------(12)-------(12)---------------|---------------12-12------------------|
D|------------------------------------------12--|------------------12------------------|
A|----------------------------------------------|--------------------------------------|
E|----------------------------------------------|--------------------------------------|
|
 |  E         +E    E   E     +E   E  E     +E     E  E     +E   E  E     +E   E  E
e|----------------------------------------------|--------------------------------------|
B|-18b20r====(18)--15--18b20r(18)-15-18b20r(18)-|-15-18b20r(18)-15-18b20r(18)-15-------|
G|----------------------------------------------|--------------------------------------|
D|----------------------------------------------|--------------------------------------|
A|----------------------------------------------|--------------------------------------|
E|----------------------------------------------|--------------------------------------|


    +E   E  E     +E   E  E     +E   E    E     +E   E  E     +E   E  E     +E
e|-(17)-15-17b19r(17)-15-17b19r(17)-15-|-17b19r(17)-15-17b19r(17)-15-17b19r(17)--|
B|-------------------------------------|-----------------------------------------|
G|-------------------------------------|-----------------------------------------|
D|-------------------------------------|-----------------------------------------|
A|-------------------------------------|-----------------------------------------|
E|-------------------------------------|-----------------------------------------|
|
 |   ~~~~                                            ~~
 |   H.                          Q        E      E   H                Q
e|-------------------------------------|-15p====13--15---------------------------|
B|--12---------------------------------|-15p====13--15---------------------------|
G|--12---------------------------------|-----------------------------------------|
D|-------------------------------------|-----------------------------------------|
A|-------------------------------------|-----------------------------------------|
E|-------------------------------------|-----------------------------------------|
|
 |   E   E  E     +E   E  E     +E   E    E     +E   E  E     +E   E  E     +E
e|-------------------------------------|-----------------------------------------|
B|------15-18b20r(18)-15-18b20r(18)-15-|-18b20r(18)-15-18b20r(18)-15-18b20r(18)--|
G|-------------------------------------|-----------------------------------------|
D|-------------------------------------|-----------------------------------------|
A|-------------------------------------|-----------------------------------------|
E|-------------------------------------|-----------------------------------------|


   Gtr V
    W                                            W
e|-------------------------------------------|-------------------------------------|
B|-------------------------------------------|-------------------------------------|
G|-------------------------------------------|-------------------------------------|
D|-------------------------------------------|-------------------------------------|
A|-------------------------------------------|-------------------------------------|
E|-------------------------------------------|-------------------------------------|
|
 | Gtr IV
 |  E      E     +E   E   E     +E   E  E       +E   E  E     +E   E  E     +E   E
e|-15-----17b19r(17)-15--17b19r(17)-15-17b19r|=(17)-15-17b19r(17)-15-17b19r(17)-15-|
B|-------------------------------------------|-------------------------------------|
G|-------------------------------------------|-------------------------------------|
D|-------------------------------------------|-------------------------------------|
A|-------------------------------------------|-------------------------------------|
E|-------------------------------------------|-------------------------------------|
|
 | Gtr II
 |     ~~~~~~~~~~~~~~~~~~~~~~~~~
 |  S  E.        +Q      +Q.            E        E   Q         E   E  Q          E
e|-------------------------------------------|--12--10---------------12p========10-|
B|-10h12--------(12)----(12)-----------------|--13--12--------12-----13p========12-|
G|-10h12--------(12)----(12)-----------------|----------------12--12---------------|
D|-------------------------------------12----|--------------------12---------------|
A|-------------------------------------------|-------------------------------------|
E|-------------------------------------------|-------------------------------------|


    W                                        H                Q          Q
e|----------------------------------------|-----------------------------10/----|
B|----------------------------------------|------------------------------------|
G|----------------------------------------|------------------------------------|
D|----------------------------------------|------------------------------------|
A|----------------------------------------|------------------------------------|
E|----------------------------------------|------------------------------------|
|
 |  E     +E   E  E     +E   E  E     +E     E  E     +E   E  E     +E   E  E
e|-17b19r(17)-15-17b19r(17)-15-17b19r(17)-|-15-17b19r(17)-15-17b19r(17)-15-----|
B|----------------------------------------|------------------------------------|
G|----------------------------------------|------------------------------------|
D|----------------------------------------|------------------------------------|
A|----------------------------------------|------------------------------------|
E|----------------------------------------|------------------------------------|
|
 |  ~~~~~~                                             ~~~~
 |  H.                          Q            E  E      H                 Q
e|----------------------------------------|-15p13-----15-----------------------|
B|-12-------------------------------------|-15p13-----15-----------------------|
G|-12-------------------------------------|------------------------------------|
D|----------------------------------------|------------------------------------|
A|----------------------------------------|------------------------------------|
E|----------------------------------------|------------------------------------|


      W                         H         S  E.     +E   E
e|---22----------------------|-----------19s20-----(20)-19-|
B|---------------------------|-----------------------------|
G|---------------------------|-----------------------------|
D|---------------------------|-----------------------------|
A|---------------------------|-----------------------------|
E|---------------------------|-----------------------------|
|
 | Gtr II
 |       ~~~~~~~~~~~~~~
 |    S  E.  +Q    +Q.     E    E  Q   E  E      Q       E
e|---------------------------|-12-10------------12p=====10-|
B|---10h12--(12)--(12)-------|-13-12--12--------13p=====12-|
G|---10h12--(12)--(12)-------|--------12-12----------------|
D|------------------------12-|-----------12----------------|
A|---------------------------|-----------------------------|
E|---------------------------|-----------------------------|
|
 | Gtr I
 |    ~~~~~~~~~~~
 | a  Q      +H         Q       E  Q   E  E      Q       E
e|---------------------------|-----------------------------|
B|---------------------------|--5--3-------------5p======3-|
G|-2s=4------(4)-------------|--5--4---4---------5p======4-|
D|-3s=5------(5)-------------|---------5-------------------|
A|---------------------------|-----------------------------|
E|---------------------------|-----------------------------|


    E  Q.    +Q   E  E    +Q.        E  H
e|-20s19----(19)----12-|-(12)\---------10/-----|
B|------------------12-|-(12)\-----------------|
G|------------------12-|-(12)\-----------------|
D|---------------------|-----------------------|
A|---------------------|-----------------------|
E|---------------------|-----------------------|
|
 |  ~~~                            ~~
 |  H.            Q        E    E  H        Q
e|---------------------|--15p==13-15-----------|
B|-12------------------|--15p==13-15-----------|
G|-12------------------|-----------------------|
D|---------------------|-----------------------|
A|---------------------|-----------------------|
E|---------------------|-----------------------|
|
 |  ~~~                            ~~
 |  H.            Q        E    E  H        Q
e|---------------------|---7p===5--7-----------|
B|---------------------|---8p===6--8-----------|
G|--4------------------|-----------------------|
D|--5------------------|-----------------------|
A|---------------------|-----------------------|
E|---------------------|-----------------------|


      ~~~                                             ~~~
      W                         H         a  Q     E  E
e|---22----------------------|-----------19s20----19----|
B|---------------------------|-----------------------20-|
G|---------------------------|--------------------------|
D|---------------------------|--------------------------|
A|---------------------------|--------------------------|
E|---------------------------|--------------------------|
|
 |       ~~~~~~~~~~~~~~
 |    S  E.  +Q    +Q.     E    E  Q   E     E  Q     E
e|---------------------------|-12-10-----------12p===10-|
B|---10h12--(12)--(12)-------|-13-12--12-------13p===12-|
G|---10h12--(12)--(12)-------|--------12----12----------|
D|------------------------12-|--------------12----------|
A|---------------------------|--------------------------|
E|---------------------------|--------------------------|
|
 |    ~~~~~~~~~~~
 | a  Q      +H         Q       E  Q   E     E  Q     E
e|---------------------------|--------------------------|
B|---------------------------|--5--3------------5p====3-|
G|-2s=4------(4)-------------|--5--4---4--------5p====4-|
D|-3s=5------(5)-------------|---------5----------------|
A|---------------------------|--------------------------|
E|---------------------------|--------------------------|


  ~~~~~~
    +H.      E  E    +Q       Q   H
e|-------------17-|-(17)\--------10/-----|
B|-(20)--------17-|-(17)\----------------|
G|----------------|----------------------|
D|----------------|----------------------|
A|----------------|----------------------|
E|----------------|----------------------|
|
 |   ~~~~                     ~~
 |   H.      Q        E    E  H       Q
e|----------------|--15p==13-15----------|
B|--12------------|--15p==13-15----------|
G|--12------------|----------------------|
D|----------------|----------------------|
A|----------------|----------------------|
E|----------------|----------------------|
|
 |   ~~~~                     ~~
 |   H.      Q        E    E  H       Q
e|----------------|---7p===5--7----------|
B|----------------|---8p===6--8----------|
G|---4------------|----------------------|
D|---5------------|----------------------|
A|----------------|----------------------|
E|----------------|----------------------|


      ~~~
      W                         H         E  Q.
e|---22----------------------|-----------17s20-----|
B|---------------------------|---------------------|
G|---------------------------|---------------------|
D|---------------------------|---------------------|
A|---------------------------|---------------------|
E|---------------------------|---------------------|
|
 |       ~~~~~~~~~~~~~~
 |    S  E.  +Q    +Q.     E    E  Q   E  E  Q   E
e|---------------------------|-12-10--------12p=10-|
B|---10h12--(12)--(12)-------|-13-12--12----13p=12-|
G|---10h12--(12)--(12)-------|--------12-12--------|
D|------------------------12-|-----------12--------|
A|---------------------------|---------------------|
E|---------------------------|---------------------|
|
 |    ~~~~~~~~~~~
 | a  Q      +H         Q       E  Q   E  E  Q   E
e|---------------------------|---------------------|
B|---------------------------|--5--3---------5p==3-|
G|-2s=4------(4)-------------|--5--4---4-----5p==4-|
D|-3s=5------(5)-------------|---------5-----------|
A|---------------------------|---------------------|
E|---------------------------|---------------------|


       ~~~~~~~
    E  E  +H     E  E    +Q       Q   H
e|-20s19-(19)------13-|-(13)\--------10/------|
B|-----------------13-|-(13)\-----------------|
G|--------------------|-----------------------|
D|--------------------|-----------------------|
A|--------------------|-----------------------|
E|--------------------|-----------------------|
|
 |  ~~~                           ~~
 |  H.           Q        E    E  H       Q
e|--------------------|--15p==13-15-----------|
B|-12-----------------|--15p==13-15-----------|
G|-12-----------------|-----------------------|
D|--------------------|-----------------------|
A|--------------------|-----------------------|
E|--------------------|-----------------------|
|
 |  ~~~                           ~~
 |  H.           Q        E    E  H       Q
e|--------------------|---7p===5--7-----------|
B|--------------------|---8p===6--8-----------|
G|--4-----------------|-----------------------|
D|--5-----------------|-----------------------|
A|--------------------|-----------------------|
E|--------------------|-----------------------|


     ~~~                                                      ~~~
                                             |---3----|

      W                         Q    Q     a  Q     Q  Q       H.      Q
e|---22----------------------|------------19s20s===19-------|-------------*|
B|---------------------------|------------------------20----|-20----------*|
G|---------------------------|------------------------------|-------------*|
D|---------------------------|------------------------------|-------------*|
A|---------------------------|------------------------------|-------------*|
E|---------------------------|------------------------------|-------------*|

|
 |       ~~~~~~~~~~~~~~                                        ~~~
 |    S  E.  +Q    +Q.     E    E  Q    E     E  Q        E    H.      Q
e|---------------------------|-12-10------------12p======10-|-------------*|
B|---10h12--(12)--(12)-------|-13-12---12-------13p======12-|-12----------*|
G|---10h12--(12)--(12)-------|---------12----12-------------|-12----------*|
D|------------------------12-|---------------12-------------|-------------*|
A|---------------------------|------------------------------|-------------*|
E|---------------------------|------------------------------|-------------*|
|
 |    ~~~~~~~~~~~                                              ~~~
 | a  Q      +H         Q       E  Q    E     E  Q        E    H.      Q
e|---------------------------|------------------------------|-------------*|
B|---------------------------|--5--3-------------5p=======3-|-------------*|
G|-2s=4------(4)-------------|--5--4----4--------5p=======4-|--4----------*|
D|-3s=5------(5)-------------|----------5-------------------|--5----------*|
A|---------------------------|------------------------------|-------------*|
E|---------------------------|------------------------------|-------------*|
 
************************************

| x    Dead note
| (n)  Ghost note
| h    Hammer-on
| p    Pull-off
| r    Release
| b    Bend
| /    Slide up
| \    Slide down
| s    Legato slide

************************************

            
            
Suggest correction
Creating personal tab
Creating personal tab
You can edit any tab online and save it as your Personal.

You can edit, replace or remove any tab part or add personal notes – all changes will be seen only by you.

Personal tabs can be accessed anytime from any device, even offline.
Learn more »
comments
print report bad tab
3 comments total.
0 reply
Venom0120 39 Nov 11, 2014 02:51 PM

holy

this is long

0 reply
warren d 10 Oct 02, 2016 12:03 AM

wouldnt this be played in e flat ?

0 reply
TophatJack 36 May 29, 2017 03:01 PM

Really good tab! only thing Ill say is the song is played a half step up, not sure if they tuned their guitars up a high step or just put a capo on it but either way still a rad tab!

guest
Wanna post a correction for this tab? Suggest correction