Oops, an error
Loading. Please wait.

Whipping Post bass

version 4
version 4

Whole song

Interactive

2,892 views 51 this week
2 commentsread comments
1 2 3 4 5
x 6
add to favorites
×
Save as Personal and add changes to this tab that will be seen only by you. Learn more ›
×
You can save this tab as Personal to edit and correct it or add notes. All changes will be seen only by you. Learn more »
launch autoscroll
font size
0
reset
guitar tuner
backing track
0:00
0:00
edit
Autoscroll
slow
fast
+/-
esc
set tempo
stop
Author
Difficulty
-----------------------------------------------------------------------------
                                          Artist - The Allman Brothers Band 
                                         ***********************************
                                                Song - Whipping Post  
                                               **********************
                                       Album - The Allman Brothers Band (1969)  
                                      *****************************************
                                                Tabbed By - Ayreon77
                                               **********************
-----------------------------------------------------------------------------
Tuning = Standard


INTRO
******
G|--------------|-----------|-------------|
D|--------------|-----------|-------------|
A|--------------|-----------|---------5-3-|
E|-5--5-3-5-3-5-|-5-3-5-3-5-|-5-3-5-3-----|X8


------------------------------
VERSE 1
********
G|---------------------------------------|
D|-7-7--7-7------------7-7--7-7--5-------|
A|---------------------------------7-5---|
E|-----------5-5--5-5------------------8-|X8


------------------------------
CHORUS
G|------------|-----|-------------------------------------------------|
D|------------|-----|-------------------------------------------------|
A|-0-3-4-5--5-|---5-|--5-5-6-7---7--9-9-9--10-10-10--11-11-11-12-0-12-|
E|------------|-5---|-5--------0--------------------------------------|

                                          Last of the 3 do this
G|---h----------|------------------|     |---------------|
D|-10-11---s----|------------------|     |---------------|
A|-------12\--5-|----10-11-12-0-12-|     |-5--3--0-----0-|
E|--------------|-12---------------|X3   |---------------|


------------------------------
BREAK
******
G|--------------|-----------|-------------|
D|--------------|-----------|-------------|
A|--------------|-----------|---------5-3-|
E|-5--5-3-5-3-5-|-5-3-5-3-5-|-5-3-5-3-----|X4


------------------------------
01:40
SOLO 1
*******
G|---------------------------------------|
D|-7-7--7-7------------7-7--7-7--5-------|
A|---------------------------------7-5---|
E|-----------5-5--5-5------------------8-|X8


------------------------------
VERSE 2
********
G|---------------------------------------|
D|-7-7--7-7------------7-7--7-7--5-------|
A|---------------------------------7-5---|
E|-----------5-5--5-5------------------8-|X8


------------------------------
CHORUS
G|------------|-----|-------------------------------------------------|
D|------------|-----|-------------------------------------------------|
A|-0-3-4-5--5-|---5-|--5-5-6-7---7--9-9-9--10-10-10--11-11-11-12-0-12-|
E|------------|-5---|-5--------0--------------------------------------|

                                          Last of the 3 do this
G|---h----------|------------------|     |---------------|
D|-10-11---s----|------------------|     |---------------|
A|-------12\--5-|----10-11-12-0-12-|     |-5--3--0-----0-|
E|--------------|-12---------------|X3   |---------------|


------------------------------
03:07
BREAK
******
G|--------------|-----------|-------------|
D|--------------|-----------|-------------|
A|--------------|-----------|---------5-3-|
E|-5--5-3-5-3-5-|-5-3-5-3-5-|-5-3-5-3-----|X4


------------------------------
03:21
SOLO 1
*******
G|---------------------------------------|
D|-7-7--7-7------------7-7--7-7--5-------|
A|---------------------------------7-5---|
E|-----------5-5--5-5------------------8-|X8


------------------------------
03:51
BRIDGE
*******
G|----------|----------|----------|----------|----------|----------|--------------|--------------|
D|----------|----------|----------|----------|----------|----------|--------------|--------------|
A|-0-0--0-0-|-2-2--2-2-|-3-3--3-3-|-5-5--5-5-|-7-7--7-7-|-9-9--9-9-|-10-10--10-10-|-12-12--12-12-|
E|----------|----------|----------|----------|----------|----------|--------------|--------------|

                                                                                                      s
G|----------|--------------|--------------|-9-9--9-9-|-11-11--11-11-|-12-12--12-12-|-13-13--13-13-|-14\-|
D|-9-9--9-9-|-10-10--10-10-|-12-12--12-12-|----------|--------------|--------------|--------------|-----|
A|----------|--------------|--------------|----------|--------------|--------------|--------------|-----|
E|----------|--------------|--------------|----------|--------------|--------------|--------------|-----|


------------------------------
CHANGE
*******
G|-----|-----|-----|-----|-----|-----|-----|-----|---|
D|-----|-----|-----|-----|-----|-----|-----|-----|---|
A|-0-0-|-2-2-|-3-3-|-2-2-|-0-0-|-2-2-|-3-3-|-5-5-|-0-|
E|-----|-----|-----|-----|-----|-----|-----|-----|---|


------------------------------
CHORUS
*******
G|--------------|--------------------------------------------------|
D|--------------|--------------------------------------------------|
A|-5----5-5---5-|-5---5-6-7---7--9-9-9--10-10-10--11-11-11-12-0-12-|
E|----------5---|---5-------0--------------------------------------|

                                          Last of the 3 do this
G|---h----------|------------------|     |---------|
D|-10-11---s----|------------------|     |---------|
A|-------12\--5-|----10-11-12-0-12-|     |-5--3--5-|
E|--------------|-12---------------|X3   |---------|


------------------------------
OUTRO
******                   s
G|----------7-9--9----9-9\11--------9-7----------------------------------9---9---9---9-----------------|
D|---7-------------7---------------------------------------------------9---9---9---9-----9---9---9---9-|
A|-----7----------------------0-0--------0--0000000000000000000000000-------------------7---7---7---7--|
E|-5-----5-------------------------------5-------------------------------------------------------------|



ENJOY................

            
            
Suggest correction
Creating personal tab
Creating personal tab
You can edit any tab online and save it as your Personal.

You can edit, replace or remove any tab part or add personal notes – all changes will be seen only by you.

Personal tabs can be accessed anytime from any device, even offline.
Learn more »
comments
print report bad tab
2 comments total.
0 reply
laxetwheel 10 Jan 14, 2016 01:09 PM

great tab really got me started. in the second verse at the first bar try
--------------------------------------------------------------------------------7r77------7r77--5-------7r77----7-7-5------------------------------------------------------------7-5-------------7-7-7--5--------------------------------------------5r55------------------ 5r55-----------8----------------------------------------------

0 reply
ayreon77 21,833 Jan 14, 2016 01:14 PM, edited at 06:14 pm

thats not making sense to me i,m not sure what you mean, when you put a tab in this box type[code]then put the tab in here then[/code]and it will make sense to me other wise i,m not sure what you mean?

guest
You may want to rate the tab now too:
select rating
Wanna post a correction for this tab? Suggest correction