Oops, an error
Loading. Please wait.

Million Young tab

848 views 1 this week
no commentswrite comment
1 2 3 4 5
1 last vote to show rating
add to favorites
×
Save as Personal and add changes to this tab that will be seen only by you. Learn more ›
×
You can save this tab as Personal to edit and correct it or add notes. All changes will be seen only by you. Learn more »
launch autoscroll
font size
0
reset
how to read this tab
guitar tuner
edit
Autoscroll
slow
fast
+/-
esc
set tempo
stop
Difficulty
sometimes it just bothers me when i see virtually no tabs for certain bands. the
analog set is one of those bands. so this is my first tab ever.

here's what i've pieced together of "million young" off know by heart. i in no way
this tab to be perfect, nor do i expect you to perceive it as such. it's actually really
i'm sure it's in drop D. but here's how i've been playing it in standard. i do think 
is pretty accurate, although i've mostly ignored the synth parts.

tuning is completely standard, although you should probably experiment in drop D and
a better way to play it. the song is characteristically simple anyway; the american analog
aren't exactly renowned for their technicality, but man they know their way around a 
enjoy.

the song begins with what sounds like a bass and some synth. the synth sounds like it's
some variant of the chords E, F#m, D, B. just play around with those if you really want to.

here's the basic idea for the bass, although again dropping to D might make this sound a
better. whatever tho:
e|-------------------------------------------------------------------------|
B|-------------------------------------------------------------------------|
G|-------------------------------------------------------------------------|
D|-------------------------------------------------------------------------|
A|--5s7------7s5----12---------5------7------------------------------------|
E|---------------------10----3------7--------------------------------------|

slightly overdriven guitar that comes in at 0:38 or so:
e|--------------------------------------------------------------------------|
B|--------------------------------------------------------------------------|
G|--------------------------------------------------------------------------|
D|---7---7---7-5-2p0-----0----7-7-7-7-7-9-9-2--2----------------------------|
A|---7---7---7-7--------------5-5-5-5-5-7-7-2--2----------------------------|
E|---0---0---0-0------0----0--0-0-0-0-0-0-0-0--0----------------------------|

chords for the synth break at 1:07:
e|--------------------------------------------------------------------------|
B|--------------------------------------------------------------------------|
G|--------------------------------------------------------------------------|
D|-2~--0~--7~--10~---2~--0~---7~--------------------------------------------|
A|-2~--5~--7~--10~---2~--5~---5~---3~---------------------------------------|
E|-0~--5~--5~--8-~---0~--5~---5~---3~---------------------------------------|

chords for the final fade-in part are pretty similar, just repeat this:
e|--------------------------------------------------------------------------|
B|--------------------------------------------------------------------------|
G|--------------------------------------------------------------------------|
D|-2-2-2-2-2-2-2-2-0-0-0-0-0-0-0-0-7-7-7-7-7-7-7-7--------------------------|
A|-2-2-2-2-2-2-2-2-5-5-5-5-5-5-5-5-7-7-7-7-7-7-7-7-3-3-3-3-3-3-3-2----------|
E|-0-0-0-0-0-0-0-0-5-5-5-5-5-5-5-5-5-5-5-5-5-5-5-5-3-3-3-3-3-3-3-3----------|

the synth that comes in just before the final repetition of "they'll follow you when you
sounds like it's playing some progression based on E, F#m, E, G. too lazy to figure out
exact chords. whatevs.

hope this helped.

            
            
Suggest correction
Creating personal tab
Creating personal tab
You can edit any tab online and save it as your Personal.

You can edit, replace or remove any tab part or add personal notes – all changes will be seen only by you.

Personal tabs can be accessed anytime from any device, even offline.
Learn more »
Give kudos to tab author, rate the tab!
1 2 3 4 5
comments
print report bad tab
guest
Wanna post a correction for this tab? Suggest correction