Oops, an error
Loading. Please wait.

The Brain bass

64 views 6 this week
no commentswrite comment
1 2 3 4 5
3 more votes to show rating
add to favorites
×
Save as Personal and add changes to this tab that will be seen only by you. Learn more ›
×
You can save this tab as Personal to edit and correct it or add notes. All changes will be seen only by you. Learn more »
launch autoscroll
font size
0
reset
guitar tuner
edit
Autoscroll
slow
fast
+/-
esc
set tempo
stop
Author
Difficulty
Tabbed by: 6METAL6BASSIST6
E-mail: petergriffinav@gmail.com

Tuning: EADG

G|----------------------------------------------------------------|
D|----------------------------------------------------------------| x2
A|--------------------------------3---3-------3-------3---3-------|
E|3---3-------3---1---1-------1-----------------------------------|

0:10

G|----------------------------------------------------------------|.
D|----------------------------------------------------------------|.
A|--------------------------------3---3-------3-------------------|.
E|3---3-------3---1---1-------1-------------------3---3-------3---|.
                                                                   . x2
G|----------------------------------------------------------------|.
D|----------------------------------------------------------------|.
A|--------------------------------5---5-------5---5---5-------5---|.
E|1---1-------1---1---1-------1-----------------------------------|.

0:26

G|----------------------------------------------------------------|
D|----------------------------------------------------------------|
A|1---1-------1---1---1-------1-----------------------------------|
E|--------------------------------1---1-------1---1---1-------1---|

G|----------------------------------------------------------------|
D|----------------------------------------------------------------|
A|----------------1---1-------1-----------------------------------|
E|4---4-------4-------------------1---1-------1---1---1-------1---|

G|----------------------------------------------------------------|
D|----------------------------------------------------------------|
A|1---1-------1---1---1-------1-----------------------------------|
E|--------------------------------1---1-------1---1---1-------1---|

G|----------------------------------------------------------------|
D|----------------------------------------------------------------|
A|5---5-------5---5---5-------5---5---5-------5---5---5-------5---|
E|----------------------------------------------------------------|

0:42

G|----------------------------------------------------------------|.
D|----------------------------------------------------------------|.
A|--------------------------------3---3-------3-------------------|.
E|3---3-------3---1---1-------1-------------------3---3-------3---|.
                                                                   . x2
G|----------------------------------------------------------------|.
D|----------------------------------------------------------------|.
A|--------------------------------5---5-------5---5---5-------5---|.
E|1---1-------1---1---1-------1-----------------------------------|.

0:58

G|----------------------------------------------------------------|
D|----------------------------------------------------------------|
A|1---1-------1---1---1-------1-----------------------------------|
E|--------------------------------1---1-------1---1---1-------1---|

G|----------------------------------------------------------------|
D|----------------------------------------------------------------|
A|----------------1---1-------1-----------------------------------|
E|4---4-------4-------------------1-----------1---1---1-------1---|

G|----------------------------------------------------------------|
D|----------------------------------------------------------------|
A|1---1-------1---1---1-------1-----------------------------------|
E|--------------------------------1---1-------1---1---1-------1---|

G|----------------------------------------------------------------|
D|----------------------------------------------------------------|
A|----------------1---1-------1-----------------------------------|
E|4---4-------4-------------------1---1-------1---1---1-------1---|

1:14

G|----------------------------------------------------------------|
D|----------------------------------------------------------------|
A|4---4-------4---4---4-------4-----------------------------------|
E|--------------------------------4---4-------4---4---4-------4---|

G|----------------------------------------------------------------|
D|----------------------------------------------------------------|
A|1---1-------1---1---1-------1-----------------------------------|
E|--------------------------------1---1-------1---1---1-------1---|

G|----------------------------------------------------------------|
D|----------------------------------------------------------------|
A|4---4-------4---4---4-------4-----------------------------------|
E|--------------------------------4---4-------4---4---4-------4---|

G|----------------------------------------------------------------|
D|----------------------------------------------------------------|
A|1---1-------1---3---3-------3---5---5-------5---5---5-------5---|
E|----------------------------------------------------------------|

1:30

G|----------------------------------------------------------------|
D|----------------------------------------------------------------|
A|5---5-------5---5---5-------5---5---5-------5---5--5--------5---|
E|----------------------------------------------------------------|

G|----------------------------------------------------------------|
D|----------------------------------------------------------------|
A|5---------------------------------------------------------------|
E|----------------------------------------------------------------|

1:39

G|----------------------------------------------------------------|.
D|----------------------------------------------------------------|.
A|1---1-------1---1---1-------1-----------------------------------|.
E|--------------------------------1---1-------1---1---1-------1---|.
                                                                   . x2
G|----------------------------------------------------------------|.
D|--------------------------------1---1-------1---1---1-------1---|.
A|3---3-------3---3---3-------3-----------------------------------|.
E|----------------------------------------------------------------|.

1:55

G|----------------------------------------------------------------|
D|----------------------------------------------------------------|
A|1---1-------1---1---1-------1---5---5-------5---5---5-------5---|
E|----------------------------------------------------------------|

G|----------------------------------------------------------------|
D|----------------------------------------------------------------|
A|1---1-------1---1---1-------1---5---5-------5---5---5---3-------|
E|----------------------------------------------------------------|

G|----------------------------------------------------------------|
D|----------------------------------------------------------------|
A|5---5-------5---5---5-------5---5---5-------5---5---5-------5---|
E|----------------------------------------------------------------|

G|--------------------------------------------------------------------------------|
D|--------------------------------------------------------------------------------|
A|5---5-------5---5---------------------------------------------------------------|
E|--------------------------------------------------------------------------------|

2:12

G|----------------------------------------------------------------|.
D|----------------------------------------------------------------|.
A|1---1-------1---1---1-------1-----------------------------------|.
E|--------------------------------1---1-------1---1---1-------1---|.
                                                                   . x2
G|----------------------------------------------------------------|.
D|--------------------------------1---1-------1---1---1-------1---|.
A|3---3-------3---3---3-------3-----------------------------------|.
E|----------------------------------------------------------------|.

2:28

G|----------------------------------------------------------------|
D|----------------------------------------------------------------|
A|1---1-------1---1---1-------1---5---5-------5---5---5-------5---|
E|----------------------------------------------------------------|

G|----------------------------------------------------------------|
D|----------------------------------------------------------------|
A|1---1-------1---1---1-------1---5---5-------5---5---5---3---3---|
E|----------------------------------------------------------------|

G|----------------------------------------------------------------|
D|----------------------------------------------------------------|
A|5---5-------5---5---5---3---3---5---5-------5---5---5---3---3---|
E|----------------------------------------------------------------|

G|----------------------------------------------------------------|
D|----------------------------------------------------------------|
A|5---------------------------------------------------------------|
E|----------------------------------------------------------------|

2:44

G|----------------------------------------------------------------|
D|----------------------------------------------------------------|
A|--------------------------------3---3-------3-------------------|
E|3---3-------3---1---1-------1-------------------3---3-------3---|

G|----------------------------------------------------------------|
D|----------------------------------------------------------------|
A|--------------------------------5---5-------5---5---5-----------|
E|1---1-------1---1---1-------1-------------------------------1---|

G|----------------------------------------------------------------|
D|----------------------------------------------------------------|
A|--------------------------------3---3-------3-------------------|
E|3---3-------3---1---1-------1-------------------3---3-------3---|

G|----------------------------------------------------------------|
D|----------------------------------------------------------------|
A|--------------------------------5---5-------5---5---5-----------|
E|1---1-------1---1---1-------1-----------------------------------|

3:00

G|----------------------------------------------------------------|
D|----------------------------------------------------------------|
A|------------------------3---------------------------------------|
E|3---------------1---------------3---3-------3---3---3---3-------|

G|----------------------------------------------------------------|
D|----------------------------------------------------------------|
A|------------------------3---------------------------------------|
E|3---3-------3---1---1-----------3---3-------3---3---3-------0---|

G|----------------------------------------------------------------|
D|----------------------------------------------------------------|
A|------------------------3---------------------------------------|
E|3---3-------3---1---1-----------3---3-------3---3---3---3---1---|

G|----------------------------------------|
D|----------------------------------------| fades out here.
A|------------------------3---------------|
E|3---3-------3---1---1-----------3---3---|

            
            
Suggest correction
Creating personal tab
Creating personal tab
You can edit any tab online and save it as your Personal.

You can edit, replace or remove any tab part or add personal notes – all changes will be seen only by you.

Personal tabs can be accessed anytime from any device, even offline.
Learn more »
Give kudos to tab author, rate the tab!
1 2 3 4 5
comments
print report bad tab
guest
You may want to rate the tab now too:
select rating
Wanna post a correction for this tab? Suggest correction