Oops, an error
Loading. Please wait.
We have an official House Of The Rising Sun tab made by UG professional guitarists. Check out the tab »
×

House Of The Rising Sun bass

17,971 views 30 this week
1 commentread comment
1 2 3 4 5
x 8
add to favorites
×
Save as Personal and add changes to this tab that will be seen only by you. Learn more ›
×
You can save this tab as Personal to edit and correct it or add notes. All changes will be seen only by you. Learn more »
launch autoscroll
font size
0
reset
guitar tuner
backing track
0:00
0:00
edit
Autoscroll
slow
fast
+/-
esc
set tempo
stop
Author
Difficulty
bass line for "the house of the rising sun" by the aminals
100% correct


the chords to the song are 
    Am        C        D          F
    Am        C        E7         E7
    Am        C        D          F
    Am        E7       Am         E7


G|--------|---------|---------|---------|
D|--------|---------|----2-0--|---------|
A|--0--0--|--0-2-3--|--3------|--0-2-3--|
E|--------|---------|---------|---------|

G|--2--2--|---2-0---|---------|---------|
D|--------|---------|--2--2---|----2----|
A|--------|---------|---------|---------|
E|--------|---------|---------|---------|

G|--2--2--|---------|---------|---------|
D|--------|---------|----2-0--|---------|
A|--------|--0-2-3--|--3------|--0-2-3--|
E|--------|---------|---------|---------|

G|--------|---------|---------|
D|--2--2--|---------|---------|
A|--------|--3--2---|--3--0---|
E|--------|---------|---------|

            
            
Suggest correction
Creating personal tab
Creating personal tab
You can edit any tab online and save it as your Personal.

You can edit, replace or remove any tab part or add personal notes – all changes will be seen only by you.

Personal tabs can be accessed anytime from any device, even offline.
Learn more »
comments
print report bad tab
1 comment total.
0 reply
mac2monster 10 Dec 17, 2009 01:25 AM

Man thank god someone got it right.......

Awesome sound with this tab.

Thank you!

guest
You may want to rate the tab now too:
select rating
Wanna post a correction for this tab? Suggest correction