Oops, an error
Loading. Please wait.

Waterslides tab

1,199 views 1 this week
4 commentsread comments
1 2 3 4 5
1 last vote to show rating
add to favorites
×
Save as Personal and add changes to this tab that will be seen only by you. Learn more ›
×
You can save this tab as Personal to edit and correct it or add notes. All changes will be seen only by you. Learn more »
launch autoscroll
font size
0
reset
how to read this tab
guitar tuner
edit
Autoscroll
slow
fast
+/-
esc
set tempo
stop
Author
Intro

the intro is just keys and bass but if you want them, the chords are Am G and B.

Intro B
----------------------------------|
----------------------------------|
----------------------------------|
----------------------------------|x 4
--------5-5-7-7-3-3333------------|
-3-3333----------------7-7-5-5----|

Verse
-3-----5-----7-----8--------------|
-3-x4--7-x4--8-x4--8-x4-----------|
-4-----7-----9-----9--------------| remember to only play upsrokes
----------------------------------|
----------------------------------|
----------------------------------|

Pre-Chorus

same as intro A

Chorus
-3---5---7---3--------------------|
-3---7---8---5--------------------|
-4---7---9---5--------------------|figure out the strum pattern
-5---7---9---5--------------------|by listening to the song
-5---5---7---3--------------------|
-3--------------------------------|

Solo?
its played over the verse chords

----------------------------------|
----------------------------------|
----------------------------------|
----------------------------------|
--------2-5~~--5-7-5-7-5~~--------|
-3~~--3---------------------------|

----------------------------------|
----------------------------------|
----------------------------------|
----------------------------------|
-5-5-3~--2-3-2-3-2----------------|
--------------------3-------------|

----------------------------------|
----------------------------------|
----------------------------------|x2
----------------------------------|
-----------------55-3-2-3-2-3-2~--|
-3-3-5--3-5-5-3~~-----------------|


Song Order

Intro A x2
Intro B x4
Verse x4
Interlude (keys only)
Verse x4
Intro A x1
Chorus x4
Solo (maybe) x2
Bridge (no guitar)
Chorus x8
Intro B x2
Intro A x2
Am Chord to reslove tension

"Meanwhile, back in the awesome throne room..."


Thatsabout it. please rate this its my first tab.  peace dawgs.


  Sh-ane

            
            
Suggest correction
Creating personal tab
Creating personal tab
You can edit any tab online and save it as your Personal.

You can edit, replace or remove any tab part or add personal notes – all changes will be seen only by you.

Personal tabs can be accessed anytime from any device, even offline.
Learn more »
Give kudos to tab author, rate the tab!
1 2 3 4 5
comments
print report bad tab
4 comments total. Showing first comments.
0 reply
ParticleManTMBG 102 Mar 10, 2007 08:59 AM

verse chords are way off

0 reply
stoogeschris 41 Apr 04, 2009 04:14 PM

verse chords should be G Dm C(low) C(high) OR

e -| 3----5----0----88888888-|
B -| 3-x4-6-x4-1-x4-88888888-|
G -| 4----7----0----99999999-|

0 reply
stoogeschris 41 Apr 04, 2009 05:28 PM

take that back... it's G Dm Am C(high)

guest
You may want to rate the tab now too:
select rating
Wanna post a correction for this tab? Suggest correction