Oops, an error
Loading. Please wait.

Between You And Me tab

version 2
version 2

Whole song

1,357 views 1 this week
1 commentread comment
1 2 3 4 5
x 3
add to favorites
×
Save as Personal and add changes to this tab that will be seen only by you. Learn more ›
×
You can save this tab as Personal to edit and correct it or add notes. All changes will be seen only by you. Learn more »
launch autoscroll
font size
0
reset
how to read this tab
guitar tuner
edit
Autoscroll
slow
fast
+/-
esc
set tempo
stop
#----------------------------------PLEASE NOTE--------------------------------#
#This file is the author's own work and represents their interpretation of the#
#song. You may only use this file for private study, scholarship, or research.#
#-----------------------------------------------------------------------------#

Author/Artist: The Ataris
Title: Between You and Me
Transcribed by: Loy Pearce
Email: stareathesunoo@hotmail.com

standard tuning

-----------------------------|------------------------------------------------
---14---14----15----14h15-14-|-14----14----17----14h15--14--------------------
-----14----14----14----------|----14----14----14------------------------------
-----------------------------|------------------------------------------------
-----------------------------|------------------------------------------------
-----------------------------|------------------------------------------------
    Intro                   Guitar 1                                          

-----------------------------|------------------------------------------------
---14---14----15----14h15-14-|-14----14----17-17-17-17-17-17-17---------------
-----14----14----14----------|----14----14------------------------------------
-----------------------------|------------------------------------------------
-----------------------------|------------------------------------------------
-----------------------------|------------------------------------------------
    Intro continued         Guitar 1                                          

------------------------------------------------------------------------------
------------------------------------------------------------------------------
-----6-6-6-6-7-7-7-7----------------------------------------------------------
-----6-6-6-6-7-7-7-7-7-7-7-7-2-2-2-2------------------------------------------
-----4-4-4-4-5-5-5-5-7-7-7-7-2-2-2-2------x2----------------------------------
---------------------5-5-5-5-0-0-0-0------------------------------------------
     Intro                  Guitar 2                                          

---------------------------------------|--------------------------------------
---------------------------------------|--------------------------------------
---------------------------------------|-------------------------99999999-----
------6-----6h7-7----7---6---7p6-------|---6-----6h7-7---7777777799999999-----
----4---5------------------------7--x2-|-4---5-----------7777777777777777-----
-------------------5---0---------------|-----------------55555555-------------
     Verse                                     Palm muted................

-----------------------------------|-----------------------|------------------
-----------------------------------|-----------------------|------------------
--------------------------7-7/9-9--|----7-77-777/99-9-xxxx-|-14/13/9/11/9-----
---7--77-7--6-66-6-4-44-4-7-7/9-9--|----7-77-777/99-9-xxxx-|-xx/xx/x/xx/x-----
---7--77-7--6-66-6-4-44-4-5-5/7-7--|----5-55-555/77-7-xxxx-|-12/11/7/-9/7-----
---5--55-5--4-44-4-2-22-2----------|-----------------------|------------------
     Chorus--Play this part BOTH         Play this the        Play this the
             TIMES                      FIRST TIME ONLY      SECOND TIME ONLY
   

------------------------------------------------------------------------------
------------------------------------------------------------------------------
---6-7---9--------------------------------------------------------------------
---6-7-7-9---x2---------------------------------------------------------------
---4-5-7-7--------------------------------------------------------------------
-------5----------------------------------------------------------------------
     Ending--I didn't try to tab the number of strokes.    Guitar 1           

--------------------------------------|---------------------------------------
--------------------------------------|---------------------------------------
---14---------------------------------|--13-----14~---------------------------
---14--xalot--------------------------|--14-x4--14~---------------------------
---12---------------------------------|--12-----12~---------------------------
--------------------------------------|---------------------------------------
 Ending   Guitar 2 

--------------------------------------|---------------------------------------
--------------------------------------|---------------------------------------
--------------------------------------|---------------------------------------
-----6---7---6h7-7-----7---6---7p6----|--6---7---6h7------7---9---9---9-------
---4---5---5---------0---7---7-----7--|4---5---5--------0---7---7---7---------
--------------------------------------|---------------------------------------
 Last instrumental part                                                       

------------------------------------------------------------------------------
------------------------------------------------------------------------------
----------------------------------------5-------------------------------------
-----6---7---6h7-7-----7---6---7p6------5-<<<-strum me slow.------------------
---4---5---5---------0---7---7-----7-5--7-------------------------------------
------------------------------------------------------------------------------
 Last instrumental part continued

            
            
Suggest correction
Creating personal tab
Creating personal tab
You can edit any tab online and save it as your Personal.

You can edit, replace or remove any tab part or add personal notes – all changes will be seen only by you.

Personal tabs can be accessed anytime from any device, even offline.
Learn more »
Give kudos to tab author, rate the tab!
1 2 3 4 5
comments
print report bad tab
1 comment total.
0 reply
End4ever 190 Dec 06, 2010 08:05 AM

It took some time to figure it out and I changed a few things... Anyway, my opinion is that this tab is better then version two.

guest
Wanna post a correction for this tab? Suggest correction