Oops, an error
Loading. Please wait.

The Boys Of Summer bass

version 2
version 2

Whole song

Interactive

4,632 views 3 this week
2 commentsread comments
1 2 3 4 5
1 last vote to show rating
add to favorites
×
Save as Personal and add changes to this tab that will be seen only by you. Learn more ›
×
You can save this tab as Personal to edit and correct it or add notes. All changes will be seen only by you. Learn more »
launch autoscroll
font size
0
reset
guitar tuner
edit
Autoscroll
slow
fast
+/-
esc
set tempo
stop
Author
Unregistered
Ataris - The Boys Of Summer

this is my first tab every1 so give kill me if some of it is wrong.

[Intro]
G|-------------------------------------------------------------------------------|
D|-------------------------------------------------------------------------------|
A|-6-----------------6-----2----4----2-------------------------------------------|
E|-------------------------------------------------------------------------------|

[Verse]
G|----------------------------------------------------------------------------------------|
D|----------------------------------------------------------------------------------------|
A|-66666666666666666666--22222222222222222222--44444444444444444444--22222222222222222222-|
E|----------------------------------------------------------------------------------------|

[Chorus]
G|------------------------------------------------------------------------------|
D|------------------------------------------------------------------------------|
A|------------------44444444444444444444444444444444----------------------------|
E|-2222222222222222-----------------------------------4444444444444444----------| 2x

[Verse] 2x
G|----------------------------------------------------------------------------------------|
D|----------------------------------------------------------------------------------------|
A|-66666666666666666666--22222222222222222222--44444444444444444444--22222222222222222222-|
E|----------------------------------------------------------------------------------------|

[Chorus]
G|------------------------------------------------------------------------------|
D|------------------------------------------------------------------------------|
A|------------------44444444444444444444444444444444----------------------------|
E|-2222222222222222-----------------------------------4444444444444444----------| 2x

[Interlude]

[Verse] x4
G|----------------------------------------------------------------------------------------|
D|----------------------------------------------------------------------------------------|
A|-66666666666666666666--22222222222222222222--44444444444444444444--22222222222222222222-|
E|----------------------------------------------------------------------------------------|

[Chorus]
G|------------------------------------------------------------------------------|
D|------------------------------------------------------------------------------|
A|------------------44444444444444444444444444444444----------------------------|
E|-2222222222222222-----------------------------------4444444444444444----------| 2x

[end]
G|-------------------------------|
D|-------------------------------|
A|------4------4-----------------|
E|-2-----------------4-----------|

Thats it. Very simple song. U can figure out the power chords from this 2 for
guitar. Email me any correctionsat evilgoldfish112@yahoo.com.

            
            
Suggest correction
Creating personal tab
Creating personal tab
You can edit any tab online and save it as your Personal.

You can edit, replace or remove any tab part or add personal notes – all changes will be seen only by you.

Personal tabs can be accessed anytime from any device, even offline.
Learn more »
Give kudos to tab author, rate the tab!
1 2 3 4 5
comments
print report bad tab
2 comments total.
0 reply
atrainv20 10 Jun 21, 2003 08:00 PM

everything is good but you have one mistake, all your 4th frets on E should be 2nd fret on A, know what i mean? it just doesnt sound right with 4 on E, and 2 on A sounds just right.

0 reply
Diphallus 135 Apr 08, 2012 12:27 PM

The above correction is true.

Also near the end of the song he does a slide:
G|--------------------------------------|
D|--------------------------------------|
A|--------4(x32)-222222/14-14-13-13-10\-|
E|-2(x16)-------------------------------|

Might not be exact note count, but you get the picture.

guest
Wanna post a correction for this tab? Suggest correction